Oops, an error
Loading. Please wait.

Belly Button Window Tab

5,813 views 12 this week
no commentswrite comment
1 2 3 4 5
excellent!
x 3
Autoscroll
+/-
esc
set tempo
stop
Contributor
Difficulty
intermediate
WARNING: You are trying to view
                                    content from Ultimate-Guitar.com
                                    in an unauthorized application,
                                    which is prohibited.

                                    Please use an official Ultimate
                                    Guitar Tabs application for iPhone,
                                    iPad or Android to access legitimate
                                    chords, guitar, bass, and drum tabs
                                    from Ultimate-Guitar.com database.

                                    Type "ultimate guitar tabs" in Apple
                                    App Store's or Android Market's
                                    search to find the application.
This song is 100% correct its staight out of a tablature book and it sounds complete and perfect
Half Step Drop Tuning Eb Ab Db Gb Bb Eb

With Wah Wah

|-------------------------------------------------------------------------|
|-------------------------------------------------------------------------|
|---------------------6-8/10-6---6---6---6/5---4--4-(6)-2----3----2h3-2h3-|
|----------------6-8-----------8---6---6-----5-------------4--------------|
|---------6/8-------------------------------------------------------------|
|---------------------------------------------------------------2---------|

|------------4h6---------4h6---------------------------------------------|
|------------------------------------------------------------------------|
|-----------------------------------------------------------8-6----------|
|-------------------------------------------------------6-8-----8-6------|
|----------------------------------------------(4)--6/8--------------8\--|
|------------------------------------------------------------------------|

|------------------------------------------------------------------------|
|------------------------------------------------------------------------|
|--------4---------------------------------------------------------------|
|-----4--4--------------------2/11---------------------------------------|
|-----2-----4-6-----------------------2/8\2-0-0--0---/6------------------|
|---------------5---5/7----2-----------------------2-----11\--5\----4/6--|

|------------------------------------------------------------------------|
|------------------------------------------------------------------------|
|-----------6-8/10-8-6---6---6---6/5---4-4h6-2--2---3-----2h3-2h3--------|
|-------6h8------------8---6---6-----5------------4----------------------|
|---6/8------------------------------------------------------------------|
|------------------------------------------------------2-----------------|

|-----4h6------4h6-------------------------------------------------------|
|------------------------------------------------------------------------|
|------------------------------------------8-6---------------------------|
|--------------------------------------6-8----8-6------------------------|
|--------------------------------4-6/8-----------8\----------------------|
|------------------------------------------------------------------------|

|------------------------------------------------------------------------|
|------------------------------------------------------------------------|
|-----4------------------------------------------------------------------|
|--4--4------------------------------------------------------------------|
|--2----4-6------------------2/11----------------------------------------|
|----------------------------------2/8\2--0-0-0---/6---------------------|
|-----------5-5/7------2------------------------2----11\--5\-----4/6-----|

|--------------------------6-4-------------------------------------------|
|------------------------4-----6-4---------------------------------------|
|----------------------4-----------6-5-4---------------------------------|
|-----------------------------------------6-4/---4-----------------------|
|----4-4---4-4-4-4-4-4-------------------------2---2-3-4---2-------------|
|--------------------------------------------------------5---------------|

|------------------------------------------------------------------------|
|------------------------------------------------------------------------|
|------4h6--2h3-----3-2-3-3------------------------------x---------------|
|--------------------------------------------------------x---------------|
|--------------------------3/4-4-------------------------x---------------|
|---2--------------------------------------------------------------------|

|------x-----------------------------------------------------------------|
|------x-------------------------------4---------------------------------|
|------x-----------4-4-2---2-----------4-x-2-4p2-------------------------|
|------------------------4h2-----------------4p2----4-2------------------|
|------------------------------------------------------------------------|
|------------2-2-------------------2-------------2-----------------------|

|-----------------------------------------------------------4------------|
|------------5----------------------------------------------4------------|
|----------4h6---2---4--------------------------------------4------------|
|------4-------2-----4--------------------------------------3------------|
|------------------------------------------------------------------------|
|--------2---------------------------------------------------------------|

|------------------------------------------------------------------------|
|------------------------------------------------------------------------|
|----------------------------4-6-4-6--6-4-6--6-4-6--6--------------------|
|------------------------------------------------------------------------|
|------------------------------------------------------------------------|
|------------------------------------------------------------------------|

|----------------------------2-----------------------------4/6-4-2---4/5-|
|--------------------------2---5-2-----------------------2-------2-4-----|
|---4h6--x--/15--------4h6---------4h6p4--2-4-2-----2h3------------------|
|---------------/12\----------------------------2-4----------------------|
|------------------------------------------------------------------------|
|------------------------------------------------------------------------|

|-x-4-2----------------4/6-4---------------------------------------------|
|------4-2-------------------6-4-----------------------------------------|
|--------------------------------6--4------------------------------------|
|------------------------------------------------------------------------|
|------------------------------------------------------------------------|
|------------------------------------------------------------------------|

|------------------------------------------------------------14-16h14------|
|-------------------------9-----8-----7-7----------------/16----------16---|
|------4---4--4-------8h10--7h9---6h8-8-8--6\--2--4h2-------------------14-|
|------3---3--3---------------------------------------4--------------------|
|--4-4-4-4-4--4------------------------------------------------------------|
|--------------------------------------------------------------------------|

|-----------------------------------------------------------------------|
|-----5----5-5--x----4------------------------------------------------2-|
|-----4----4-4--x----4---4-4---------4-4-4------------------------4h5---|
|--------------------4-4-4-4-2-----3-3-3-3------------------------------|
|-44-----4--------0-2----------4---2-2-2-2------------------------------|
|--------------------------------2---------0-0-2-5--2-0h2--2--2---------|


|-----------------------------------------------------------------------|
|-----------------------------------------------------------------------|
|-----------4-6--6/8--8---6-5---4/6--8\6--2/4--6\4----------------------|
|-----2-4/6-------------8-----------------------------------------------|
|-2h4-------------------------------------------------------------------|
|-----------------------------------------------------------------------|


|---------------------5-5h6-5-5h6---17h18----16---14--------------------|
|-2----------------x---------------------------------16-14--------------|
|-2--2---2-2-------x--------------------------0-------------------------|
|--------------4\--x----------------------------------------------------|
|-----------------------------------------------------------------------|
|-----------------------------------------------------------------------|
                  ~~~
|-16h18--16h18--16---14-x-------14----------------------------------------|
|-----------------------x-14h16-----17p14--14-----------------------------|
|---------------------------------------------16h17h18-18p16p14--14h16----|
|----------------------------------------------------------------------16-|
|-------------------------------------------------------------------------|
|-------------------------------------------------------------------------|

|-----------------------------------------------------------------------|
|----------------------------------------------------14\----------------|
|-18p16--14--x-x--------16h18-14--14\---14h15h16-----14h15\-------------|
|-----------------------------------------------------------------------|
|-----------------------------------------------------------------------|
|-----------------------------------------------------------------------|

|------------------------------------------------17--x-x----------------|
|----------------------------17------------------x---x-x--16-17---------|
|-----------14-16-14---16-18-----16-14----x16-18-18--x-x-----16---------|
|------14-16------------------------------------------------------------|
|-14-16-----------------------------------------------------------------|
|-----------------------------------------------------------------------|
comments
We did not receive enough feedback on this tab! Please rate:
1 2 3 4 5
I want to post or [tab]
guest
You may want to rate the tab now too:
select rating
Please do not post tabs as comments. Select "correction" instead!