Oops, an error
Loading. Please wait.

Bold As Love Tab

ver1
ver1

Solo

Whole song

More versions @911Tabs.com
111,114 views 270 this week
8 commentsread comments
1 2 3 4 5
worth learning
x 8
Autoscroll
+/-
esc
set tempo
stop
Contributor
WARNING: You are trying to view
                                    content from Ultimate-Guitar.com
                                    in an unauthorized application,
                                    which is prohibited.

                                    Please use an official Ultimate
                                    Guitar Tabs application for iPhone,
                                    iPad or Android to access legitimate
                                    chords, guitar, bass, and drum tabs
                                    from Ultimate-Guitar.com database.

                                    Type "ultimate guitar tabs" in Apple
                                    App Store's or Android Market's
                                    search to find the application.
-------------------------------------------------------------------------------
                BOLD AS LOVE (instrumental) - Jimi Hendrix
-------------------------------------------------------------------------------

I have not fully completed this tab yet since it is such a long instrumental
but hope to have it finished soon.

Tabbed by:Hendrix!
Email:

Tuning:standard E
           
e|---------------------------------------------------------------------------|
B|---------3---5--------------5--5--5----------------------------------------|
G|-4---2---4---6--------------6--6--6----------------------------------------|
D|-6---4---5---7----------7---7--7--7--7-------------------------------------|
A|-7---5---------------------------------------------------------------------|
E|---------------------------------------------------------------------------|



e|5-x-x-x--x----------------------------------------------------5h7-x-9-\----|
B|5-x-x-x--14\---------0---0---------2--------------------------5---x-10\----|
G|6-x-x-x--14\---------1h2-1---------2h4p2-------7-7----------------x-9-\----|
D|7-x-x-x--14\-------2-------2-2-----------4-----7-7-----0-------------------|
A|7-x-x-x--12\-----2-------------------------0/5-5-5-0h2-----0---------------|
E|5-x-x-x--------0---------------2-------------------------------------------|
                                 T
                              

e|---------------------------------------------------------------------------|
B|----0-0-0---0---0------2----------------------------------------0---------0|
G|----1-1-1h2-1---1------2h4p2--------7-7\-6-6-7----7-------------4h6/7-7\6-4|
D|--------------2------4-------4------7-7\-6-6-7----7h9-7--\-----------------|
A|-------------------------------0/5--5-5\-4-4-5-5------7h9\---0-------------|
E|-0-----------------2-------------------------------------------------------|
                     T
                
    
e|--------------7\-----------------------------------------------------------|
B|--------5h7-7-7\-----------------------------------------------------------|
G|--------------------2h4-2p0---------7---7-7\--2--4h6p4-2-2h4p2----4---4-x-x|
D|-----9----------------------5\4p0---7---7-7\--2----------------4--4---4-x-x|
A|-----9----------------------------0-5---5-5\--0-------------------2---2-x-x|
E|--/7-----------------------------------------------------------------------|


   
e|---------------5--5~-5~-5~\------------------------------------------------|
B|---------------5--5~-5~-5~\--------0-----0-------2-------------------------|
G|-4-4-4--5-5-5--6----------\--------1h2p1-1-------2h4p2--------7--7-7-------|
D|-5-5-5--6-6-6--7----------\--------------2-----4-------4------7--7-7-------|
A|-5-5-5--6-6-6--7----------\-----2------------------------0/5--5--5-5--0----|
E|-3-3-3--4-4-4--5----------\---0--------------2-----------------------------|
                                               T

 
e|9-9-9-9-9-9-9-9--9-9-9-9-9-\-----------------------------------------------|
B|1010101010101010 1010101010\----------------------2------------------------|
G|9-9-9-9-9-9-9-9--9-9-9-9-9-\----------------------2h4p2-----7--------------|
D|-------------------------------------/9\--------4-------4---7----------0---|
A|---------------------------------2---/7\------------------0-5------0h2-----|
E|-------------------------------0--------------2----------------------------|
                                                T


e|---5h7-x----------------------------------------------------------5h7-x-7h9|
B|---5---x-------------0---0------2----------------5/7-10-----------5---x-7--|
G|---6---x-------------1h2-1------2h4p2----------7--------6h7p6---------x----|
D|-------x-14\-------2----------4-------4-0----7----------------7------------|
A|0------x-12\-----2------------------------/5--------------------0----------|
E|-------x-------0------------2----------------------------------------------|
                              T
  

e|-9-\-----------------------------------------------------------------------|
B|-10\----0--------------2-------2---------------------5-7-5--------5-------5|
G|-9-\----1h2p1----------2h4p2---2-----7-----6-------7-------7-4----6h7p6-6-6|
D|--------------2-2----4-------4-------7-----6-----7----------------------7--|
A|----------------------------------/5----/4----/5----------------0----------|
E|------0------------2-------------------------------------------------------|
                     T
  
           
e|--------------------3-3--3-3--3-3\-----------------------------------------|
B|--------------------3-3--3-3--3-3\----3-3---3\------0h2p0-0-x-x------------|
G|--------------7-----------------------2-2h4-2\------2-----2-x-x--4-4-4-2---|
D|--------------7---5-----------------0-----------------------x-x--4-4-4-2---|
A|------5/7-6h7------------------------------------0----------x-x--2-2-2-0---|
E|--7-7----------------------------------------------------------------------|



e|---------------/5---5~-5~-----------------------------------------/5--5~-5~|
B|---------------/5---5~-5~------------------/5~\----2h3-3-2-3p2-2--/5--5~-5~|
G|4-4-4--5-5-5---/6--------------------------/6~\----2---2-2-2---2--/6-------|
D|5-5-5--6-6-6---/7--------------/13\------4------------------------/7-------|
A|5-5-5--6-6-6---/7-----------2--/11\-------------------------------/7-------|
E|3-3-3--4-4-4---/5---------0------------2--------------------------/5-------|
                                         T


e|-5~----------------------------------------5--x-x-x------------------------|
B|-5~------------------x-x--2h3-3-2-3p2-x-x--5--x-x-x--------------0---0-----|
G|--------/13\---------x-x--2---2-2-2---x-x--6--x-x-x--------------1h2-1-----|
D|--------/13\-------4-x-x--------------x-x--7--x-x-x------------2-------2-2-|
A|------2------------4-x-x-------------------7--x-x-x--12\-----2-------------|
E|----0----------2---2-x-x-------------------5--x-x-x--12\---0---------------|
                 T
  

e|---------------------------------------------------------------------------|
B|-----2-----------------------------5----x-----------------5----------------|
G|-----2h4p2----------7--------------4h6--x-----------------4----------------|
D|---4-------4--------7-5-4---------------x-------------4/6------------------|
A|-------------0--5h7-------7-7---0-------x--2/4\2-----------------------9--7|
E|-2------------------------------------------------0-----------2------------|
   T


e|--------------------------------------------53-----------------------------|
B|----------------------------------------------53----------------------0----|
G|-7\6-6-6/7-------7--4h6p4-----------------------420--------------7\---4h6p4|
D|-7\6-6-6/7---7h9----------7-4----------------------20-----0------7\--------|
A|-5\4-4-4/5--------------------7-4---2----------------2p0-----5h7----0------|
E|--------------------------------------------------------3------------------|



e|-------------------------------5--5~-5~-5~\--------------------------------|
B|0--x-x-------------------------5--5~-5~-5~\---------------------2h3-3p2-3p2|
G|4--x-x--7-7-7-2--4-4-4--5-5-5--6------------------/9\-----------2---2---2--|
D|---x-x--7-7-7-2--5-5-5--6-6-6--7------------------/9\-------4-4------------|
A|---x-x--5-5-5-0--5-5-5--6-6-6--7----------------2-/7\-----4-4-4------------|
E|-----------------3-3-3--4-4-4--5--------------0---------2---2-2------------|
                                                          T

                                                          (DISTORTION ON)
e|-3--5--5~-5~-5~\-----------------------------------------9-9-9-9-9-9-9-9-9-|
B|-2--5--5~-5~-5~\--------------------------2h3-3p2-3p2/---101010101010101010|
G|----6------------------/13\---------------2---2---2--/---9-9-9-9-9-9-9-9-9-|
D|----7------------------/13\--------4-4-x-----------------------------------|
A|----7----------------2-/11\------4-4-4-x-----------------------------------|
E|----5--------------0-----------2---2-2-x-----------------------------------|
                                 T

                       
e|9-9-9-9-9-9-9-/9-9-9-9-777777777777/14141414141414141414141414141414--/--\-|
B|10101010101010/10101010----------------------------------------------------|
G|9-9-9-9-9-9-9-/9-9-9-9-777777777777/14141414141414141414141414141414--/--\-|
D|---------------------------------------------------------------------------|
A|---------------------------------------------------------------------------|
E|---------------------------------------------------------------------------|



e|/--\--9-9-9-9-9-9-9-9-9-9-9-9-9-9-9-9-/9-9-9-888777777777/-1414141414141414|
B|------10101010101010101010101010101010/101010------------------------------|
G|/--\--9-9-9-9-9-9-9-9-9-9-9-9-9-9-9-9-/9-9-9-888777777777/-1414141414141414|
D|---------------------------------------------------------------------------|
A|---------------------------------------------------------------------------|
E|---------------------------------------------------------------------------|



e|1414141414141414-/212121212121212121212121\---/9-9-9-9-9-9-9-9-9-9-9-9-9-9-|
B|----------------------------------------------/1010101010101010101010101010|
G|1414141414141414-/212121212121212121212121\---/9-9-9-9-9-9-9-9-9-9-9-9-9-9-|
D|---------------------------------------------------------------------------|
A|---------------------------------------------------------------------------|
E|---------------------------------------------------------------------------|



e|9-9---9-7------------------------------------------------------------------|
B|1010------9-9-7----------------7-------------------------------------------|
G|9-9-------------9-7--7/9\7-7/9---9------------------------------11-9----9--|
D|-----------------------------------11p9-7-7-9-7h9-7-7--7-7-9/11------11----|
A|---------------------------------------------------------------------------|
E|---------------------------------------------------------------------------|



e|---------------------------------------------------------------------------|
B|---------------------------------------------------------------------------|
G|----------------------------------------------9b11--9------------9b11------|
D|11-9/11-9-7-9b11--r9-7-----7-9/11-9-7h9p7---7---------7-9/11-9-7-----------|
A|-----------------------7h9----------------9--------------------------------|
E|---------------------------------------------------------------------------|



e|---------------------------------------------------------------------------|
B|---------------------------------------------------------------------------|
G|9b11--9--9b11-b11-b11-9---9b11--r9-------------------/7-7-9-9b11---r9------|
D|-----------------------------------9b11--r9--7/9-7-7------------------7----|
A|---------------------------------------------------------------------------|
E|---------------------------------------------------------------------------|


                               (USE FINGER TAPPING HERE 10p8p5) 
e|---------------------------------------------------------------------------|
B|------------------------10-8-10p8p510p8p510p8p510p8p510p8p510p8p510p8p510p8|
G|/7-7-9-9b11---r9---/6-9----------------------------------------------------|
D|-----------------7---------------------------------------------------------|
A|---------------------------------------------------------------------------|
E|---------------------------------------------------------------------------|



e|---------------------------------------------------------------------------|
B|p510p8p510p8p510p8p510p8p510p8p510p8p510p8p510p8p510p8p510p8p510p8p510p8p5-|
G|---------------------------------------------------------------------------|
D|---------------------------------------------------------------------------|
A|---------------------------------------------------------------------------|
E|---------------------------------------------------------------------------|



e|---------------------------------------------------------------------------|
B|10p8p510p8p510p8p510p8p510p8p510p8p510p8p510p8p510p8p510p8p510p8p510p8p510p|
G|---------------------------------------------------------------------------|
D|---------------------------------------------------------------------------|
A|---------------------------------------------------------------------------|
E|---------------------------------------------------------------------------|



e|---------------------------------------------------------------------------|
B|8p510p8p510p8p510p8p510p8p510p8p510p8p510p8p510p8p510p8p510p8p510p8p510p8p5|
G|---------------------------------------------------------------------------|
D|---------------------------------------------------------------------------|
A|---------------------------------------------------------------------------|
E|---------------------------------------------------------------------------|



e|--------------------------------------------------------8------10-8--------|
B|10p8p510p8p510p8p5-----------10-8/10--10-8-10----10-8-----10--------10-8---|
G|------------------9----5-7/9------------------99------9------9-----------9-|
D|--------------------/7-----------------------------------------------------|
A|---------------------------------------------------------------------------|
E|---------------------------------------------------------------------------|



e|--------------------------------------------------------------5------------|
B|----------------------8--------8----8----8----8-------------5---8--10-8--10|
G|8-7-7/9--5-7-5-7/9--9---9-7/99---99---99---99---9-7/9-7-5------------------|
D|----------------------------------------------------------7----------------|
A|---------------------------------------------------------------------------|
E|---------------------------------------------------------------------------|



e|--------------------8------8------8------8/10--8--5-8-5h7p5---5-9p5--9p5---|
B|-8-10-8-10-8-10-8-10-10--10-10--10-10--10-------------------7------5----5--|
G|-----------------------99-----99-----99------------------------------------|
D|---------------------------------------------------------------------------|
A|---------------------------------------------------------------------------|
E|---------------------------------------------------------------------------|



e|9p5--4p0--4p0--4p0--4p0--4p0--5p2--5p2--5p2--5p2/--14p10---14p10---14p10---|
B|---5----0----0----0----0----0----2----2----2------------10------10------10-|
G|---------------------------------------------------------------------------|
D|---------------------------------------------------------------------------|
A|---------------------------------------------------------------------------|
E|---------------------------------------------------------------------------|



e|14\---9p5--9p5--9p5--9p5--4p0--4p0--4p0--4p0--5p2--5p2--5p2--5p2/--14p10---|
B|----5----5----5----5----5----0----0----0----2----2----2----2------------10-|
G|---------------------------------------------------------------------------|
D|---------------------------------------------------------------------------|
A|---------------------------------------------------------------------------|
E|---------------------------------------------------------------------------|



e|14p10---14p10---14p10---/9-12-/9-12-/9-12-/9-12----12----12----12----12-/14|
B|-----10------10---------------------------------/9-9--/9-9--/9-9--/9-9-----|
G|----------------------9-/9-9--/9-9--/9-9--/9-9--------------------------/14|
D|------------------------------------------------/9-9--/9-9--/9-9--/9-9-----|
A|---------------------------------------------------------------------------|
E|---------------------------------------------------------------------------|



e|14-/14-14-/12-12-/12-12----------------------------------------------------|
B|---------------------------------------------------------------------------|
G|14-/13-13-/12-12-/11-11----------------------------------------------------|
D|---------------------------------------------------------------------------|
A|---------------------------------------------------------------------------|
E|---------------------------------------------------------------------------|




| T  use thumb 
| b  bend to
| r  release bend
| /  slide up
| \  slide down
| h  hammer-on
| p  pull-off
| ~  vibrato
| +  harmonic
| x  Mute note
===============================================================================
comments
print report bad tab
8 comments total. Showing first comments.
0 reply
mpezzullo wrote on June 8 2009, 08:41 pm

cool man, you gotta get the rest of this done soon!

0 reply
AlexanderSig wrote on June 13 2010, 01:34 pm

http://www.youtube.com/watch?v=7b9deTD2Ymk

It's this version, right?

0 reply
chadk241 wrote on June 20 2010, 08:20 pm

You should maybe update it to read instrumental. You should also finish the tab, you're so close! Great song. Accurate enough to figure it out. Thanks.

I want to post or [tab]
guest
You may want to rate the tab now too:
select rating
Please do not post tabs as comments. Select "correction" instead!