Oops, an error
Loading. Please wait.

Bold As Love Tab

ver2
ver2

Solo

Whole song

Interactive

More versions @911Tabs.com
72,871 views 414 this week
1 commentread comment
1 2 3 4 5
excellent!
x 6
Autoscroll
+/-
esc
set tempo
stop
Contributor
Tuning
D# G# C# F# A# D#
Hey! There's an official Ultimate Guitar app which is ideal
for learning songs when you're away from computer. Get the app
WARNING: You are trying to view
                                    content from Ultimate-Guitar.com
                                    in an unauthorized application,
                                    which is prohibited.

                                    Please use an official Ultimate
                                    Guitar Tabs application for iPhone,
                                    iPad or Android to access legitimate
                                    chords, guitar, bass, and drum tabs
                                    from Ultimate-Guitar.com database.

                                    Type "ultimate guitar tabs" in Apple
                                    App Store's or Android Market's
                                    search to find the application.
#----------------------------------PLEASE NOTE---------------------------------#
#This file is the author's own work and represents their interpretation of the #
#song. You may only use this file for private study, scholarship, or research. #
#------------------------------------------------------------------------------#

BOLD AS LOVE
As recorded by Jimi Hendrix
(From the 1967 Album AXIS: BOLD AS LOVE)

Transcribed by JimmyPage#2
        

Words and Music by Jimi Hendrix
Arranged by JimmyPage#2

Gtr I (Eb Ab Db Gb Bb Eb) - 'Gtr. 1'
Gtr II (Eb Ab Db Gb Bb Eb) - 'Gtr. 2'
Gtr III (Eb Ab Db Gb Bb Eb) - 'Gtr. 3'
Gtr IV (Eb Ab Db Gb Bb Eb) - 'Gtr.4'

 Verse
  Moderately Slow Rock Q=70
  A          N.C.(E)           (F#m)          (D)
 4/4
  Gtr I
                       |-3-|                    |3| |-3-| |3|
  E E  S  E. E E a S S S S S   a Q  a S S S S E E S S S S S E
|-5--------------------------|---------------------------------|
|-5----x---------0-----------|------2--------------------------|
|-6----x--x\-----1h2p1-------|------2h4p2----------------------|
|-7----x--x\-----------2---2-|------------4-----7-7-7h9-9-7----|
|-x---12--x\---2---------4---|--------------0-5-----------7h9--|
|-5------14\-0---------------|-1s2-----------------------------|


  (A)           (E)                 (F#m)        (D) (C#)
                          |3| |3|
  Q  a S a  E.  E  S  S a E S E S   Q  a S S S S E e s S e
|----5----------------------------|------------------------|
|----5h7-5-(5)\---------0---------|----2-----------------6-|
|--------4h=6\----(1)-1-1h2-------|----2h4-2-------------6-|
|-----------------------------2-2-|----------4-----7---6---|
|---------------------------------|------------0-5---4-----|
|-5-------------0-----------4-----|-2----------------------|


  (D)                      (A)
  Gtr I
                         |-3-| |3-|    |-3--|
  a S  S a E a S S a E   E a S E  S  a E a  S  +E
|--------------------------------------------------|
|--------------------------5---------5---5-(5)-(5)-|
|-7----------7-------------4h6-------4h6-4h=6--(6)-|
|-7h9--7-----7h9p7---------------(7)---------------|
|--------7h9-------7h9\----------------------------|
|--------------------------------------------------|
|
| Gtr II
|                    |3|
|   Q.               E S Q             Q
|--------------------------------------------------|
|--------------------------------------------------|
|--------------------------------------------------|
|--------------------------------------------------|
|---5----------------9s7---------------------------|
|------------------------5-------------------------|


  (Bm)              (G)
           |-3--|             |3|
  E S S a  S  S S e E a S S   E S a S S
|---------------------------------------|
|-------7h10p=7-------------------------|
|---7-----------7-----2h4p2-------2h4p0-|
|-----------------9-----------5-5-------|
|---------------------------------------|
|-7---7-------------3-------------------|
|
|          |-3--|
| Q       +E    S E Q       a Q
|---------------------------------------|
|---------------------------------------|
|---------------------------------------|
|---------------------------------------|
|---------------------------------------|
|-7-------(7)---7-7S3-------5s7---------|


  (D)                (A)
  Gtr I
  |-3--|         |3|       |-3-|
  E. E S a  S  S E S Q   a E a S S S
|------------------------------------|
|------------------------5---5-------|
|------7-----------------4h6-4h6p4---|
|--------7h=9p=7-------------------4-|
|-5--5-----------7h8-----------------|
|--------------------5---------------|
|
| Gtr II
| Q        +S  S E   Q.          E
|------------------------------------|
|------------------------------------|
|------------------------------------|
|------------------------------------|
|-5--------(5)-5s4-------------------|
|--------------------5---------------|
|
| Gtr III
| W
|------------------------------------|
|------------------------------------|
|------------------------------------|
|------------------------------------|
|------------------------------------|
|------------------------------------|


    (Bm)              G6          G#
            |3-| |3-| |---3---|   |---3---|
     E E a  E  S E  S E   E   E   E   E   E
|---------------------0------------------------|
|--------7h10---------3------------------------|
|--------------7------4-----------5---5---5----|
|------9-------7----0-5---5---5---6---6---6----|
|----------------9\-0-x---x---x---x---x---x----|
|---/7----------------3---3---3---4---4---4----|
|
|           |3-|      |---3---|   |---3---|
| a  Q     +E  S E    E   E   E   E   E   E
|----------------------------------------------|
|----------------------------------------------|
|----------------------------------------------|
|----------------------------------------------|
|----------------------------------------------|
|-5s=7-----(7)-7-7----3---3---3---4---4---4----|
|
|                     |----6----| |----6----|
|    H                S S S S S S S S S S S S
|---------------------7-7---7---7-8-8---8---8--|
|----------------------------------------------|
|---------------------7---7---7---8---8---8----|
|----------------------------------------------|
|----------------------------------------------|
|----------------------------------------------|


 Chorus
  A                                         E
  Gtr I
                         |-----3-----|                          |-3--| |-3-|
  a E     S   +E        +S     S     S    a E       E.         +E    S S S S
|---------5---(5)-------(5)---(5)\------------------0----------(0)---0-----0-|
|---------5---(5)-------(5)---(5)\---2\-------------0----------(0)-----------|
|-4s6-------------------------------------0h1-------1----------(1)-----0h1---|
|----------------------------------------------------------------------------|
|----------------------------------------------------------------------------|
|----------------------------------------------------------------------------|
|
| Gtr III
|   |------6------| |------------6------------| |-----6------|  |----6-----|
| a S S S S S     S S S     S      S    S     S S S    S S S S  S  S S S S S
|-8s9-9-9-9-9-----9-9-9-----9------9----9-----9-7-7----7-7-7-7--7--7-7-7-7-7-|
|----------------------------------------------------------------------------|
|-8s9-9-9-9-9-----9-9-9-----9------9----9-----9-7-7----7-7-7-7--7--7-7-7-7-7-|
|----------------------------------------------------------------------------|
|----------------------------------------------------------------------------|
|----------------------------------------------------------------------------|


  F#m             G
          |3| |3|  |----6----|   |-----6-----|
    S S E E S E S  S S S S S S   S S S a S S S
|---0h2-2---2---2-/3---3-3---3---5p3-3-3h5p3-3----|
|---0-2-----------/3-3---3-3---------3-------3----|
|---1S2---2---2---/4-4---4-4---------4-------4----|
|-------------------------------------------------|
|-------------------------------------------------|
|-------------------------------------------------|
|
|   TP             TP            TP
|   H              Q           a Q
|-/14-------------/7-----------7s8----------------|
|-------------------------------------------------|
|-/14-------------/7-----------7s8----------------|
|-------------------------------------------------|
|-------------------------------------------------|
|-------------------------------------------------|


  N.C.(A)     E
          |3|                 |-3--| |-3-|
  a E E E S E  S   S   E     +E    S E   S
|-----5---5------------0-----(0)---0-0---0-|
|----------------------0-----(0)-----0-----|
|-4s6---6---6--0h==1---1-----(1)-----1-----|
|------------------------------------------|
|------------------------------------------|
|------------------------------------------|
|
|   TP
|              |-----6-----|  |----6-----|
| a H          S S   S S S S  S  S S S S S
|-8s9---------/7-7---7-7-7-7--7--7-7-7-7-7-|
|------------------------------------------|
|-8s9---------/7-7---7-7-7-7--7--7-7-7-7-7-|
|------------------------------------------|
|------------------------------------------|
|------------------------------------------|


  F#m                                      N.C.(G)
                        |--3--|  |--3--|    |-3-| |-3-|   |-----6-----|
  a   E        E        E     S  E     S a  E   S S S S a S S S a S S S
|-1s==2--------2--------------2--2-----2--------3-5p3---3h5p3-3-3h5p3-3--|
|-1s==2--------2--------2------------------------------------------------|
|-1s==2-----------------2----------------3s=4---------4------------------|
|------------------------------------------------------------------------|
|------------------------------------------------------------------------|
|------------------------------------------------------------------------|
|
|     |------6-------|  |------6-------|    |----6----|   |-----6-----|
|     S  S  S  S  S  S  S  S  S  S  S  S    S S S S S S   S S S   S S S
|---/14-14----14----14----14----14----14------7---7---7-----8-----8---8--|
|------------------------------------------------------------------------|
|---/14----14----14----14----14----14------/7---7---7-----8---8-----8----|
|------------------------------------------------------------------------|
|------------------------------------------------------------------------|
|------------------------------------------------------------------------|


  (A)                             (E)
  Gtr I
                                              |-3-|
  a E     E     a S   S   S   S   E     E     E   S S   S
|---------5-----7s9---9---9---8---7-----7-----7---7-7---x---|
|-----------------------------------------------------------|
|-4s6-----------7s9-------9---8---7-----7-----7---7-7---x---|
|-----------------------------------------------------------|
|-----------------------------------------------------------|
|-----------------------------------------------------------|
|
| Gtr III
|   |----6----|   |------6------| |----6----| |-----6-----|
| a S S S S S S   S S   S S S   S S S S S S S S S S S S   S
|-8s9-9-9-9-9-9---9-9---9-8-8---8-7-7---7---7---7---7-----7-|
|-----------------------------------------------------------|
|-8s9-9-9-9-9-9---9-9---9-8-8---8-7---7---7---7---7---7-----|
|-----------------------------------------------------------|
|-----------------------------------------------------------|
|-----------------------------------------------------------|


  F#m    N.C.(D)
             |3|
  e E Q  E E E S E
|-2------------------|
|-2------------------|
|--------------7-----|
|--------------7-----|
|--------5-5---7h9\--|
|--------------------|
|
| e E Q  H
|-2------------------|
|-2------------------|
|-2------------------|
|--------------------|
|--------------------|
|--------------------|


  (A)                (Bm)                   (D)              (G) (G#)
        |-3-|                         |3|     |3|
  E E a S S S s  S a  T T S S S a S S S E   E E S a S S a E  E S S E E
|-----------------------------------------|-----------------------------|
|-----5------------7h10p7-----------------|-----------------------------|
|-----5h7p5-6-------------7---------0-----|-----7-7------------4--------|
|-------------7-------------9-9-7h9-------|---7---7h9p7--------5-5---6--|
|---7---------------------------------7h9-|-5-----------7h9\-----5------|
|-5-------------/7------------------------|------------------3-----4----|


 Verse
  N.C.(A)             (E)                 (F#m)  (D)
  Gtr I
                                                             ~~
          |-3-|  |3-|   |3|   |3| |-3-|
  E a E a E a S  E  S E E S a E S S S S   H      S S S S S S E
|---5-----------------------------------|------------------------|
|---5h7-5---5---------------------------|------------------------|
|-------4h6-4h6-(6)s4-----1-1h2p1-------|--------7-6-7-6-7-6-----|
|---------------------------------2---2-|--------------------7---|
|-----------------------2-----------4---|------------------------|
|-5-------------------0-----------------|------------------------|
|
| Gtr II
| Q     a E      E    H                   Q  E E S S S S S S E
|---------------------------------------|------------------------|
|---------------------------------------|------------------------|
|---------------------------------------|------------------------|
|---------------------------------------|------4-----------------|
|----------------7----------------------|----4---5-4-5-4-5-4-----|
|-5-----7s9-----------0-----------------|-2------------------5\--|


  (A)               (E)               (F#m)        D5  N.C.(C#5)
  Gtr I
                         |-3--| |3|        |3| |3|     |----6----|
  E S S a  E    a E E E +E  a S E S   Q  a E S E S E E S S S S S S
|-----------------------------------|------------------------------|
|-----------------------------------|----2-------------------------|
|---------------------------1h2p1---|----2h4-2-----7-7-----6-------|
|---------------------2-(2)-------2-|-4--------4-0-7-7-----------7-|
|---7-7-7h=9----------2-(2)---------|--------------5---7s8---8s9---|
|-5-------------7h9-0---------------|------------------------------|
|
| Gtr II
|          |3-|
| Q       +E  S   E H                 Q    E   E   Q   Q
|-----------------------------------|------------------------------|
|-----------------------------------|------------------------------|
|-----------------------------------|------------------------------|
|-----------------------------------|------------------------------|
|-----------------------------------|--------------5---4-----------|
|-5-------(5)-7s==9-0---------------|-2----2-----------------------|


  (D)             (A)           (Bm)         (G)
  Gtr I
                        |3|         |-3--|
  S S E a S S S S E E a E S E   E E S  S S e S  S S S E E
|-----------------------------|---------------------------|
|-----------------------------|-----7h10p7---3------------|
|-------7-------------5---5---|-----7------7-2--4-2-------|
|-----7-7h9-7---------6h7-6---|---9-----------------5-5-5-|
|-7h9-9-------9s7-----------7-|---------------------------|
|-----------------5-5---------|-7-------------------------|
|
| Gtr II
| Q       S S E   E E   Q       Q   Q        E.     S Q
|-----------------------------|---------------------------|
|-----------------------------|---------------------------|
|-----------------------------|---------------------------|
|-----------------------------|---------------------------|
|-5-------5-5-4---------------|---------------------------|
|-----------------5-5---------|-7---7S=======3------5s7---|


  (D)        (A)                   (Bm)  Bm  G           G#
  Gtr I
   PM|       PM--|
       |3|           |3| |3-|                |---3---|   |---3---|
   E E E S E E S S a E S E  S       Q  E  E  E   E   E   E   E   E
|------------------------------|-------------------------------------|
|------------------5-----------|-------7-----------------------------|
|--------7---------6h7-6-------|-------7--7\-4---4---4---5---5---5---|
|------7---7-------------7-(0)-|-------9--7\-5---5---5---6---6---6---|
|----9-------------------------|-------x--x--x---x---x---x---x---x---|
|-10---------5-5-5-------------|---/7--7-10\-3---3---3---4---4---4---|
|
| Gtr II
|                                            |---3---|   |---3---|
|  E Q     E E Q         E       a  Q  E  E  E   E   E   E   E   E
|------------------------------|-------------------------------------|
|------------------------------|-------------------------------------|
|------------------------------|-------------------------------------|
|------------------------------|-------------------------------------|
|--5-5-----4-------------------|----------0--------------------------|
|------------5-5---------5-----|-5s=7--7-----3---3---3---4---4---4---|
|
| Gtr III
|                                            |----6----| |----6----|
|  W                                H        S S S S S S S S S S S S
|------------------------------|-------------7-7-7-7-7-7-8-8-8-8-8-8-|
|------------------------------|-------------------------------------|
|------------------------------|-------------7-7-7-7-7-7-8-8-8-8-8-8-|
|------------------------------|-------------------------------------|
|------------------------------|-------------------------------------|
|------------------------------|-------------------------------------|


 Chorus
  A                         N.C.(E)
  Gtr I
    |----6----| |----6----| |-3-|  |-3--| |----6----|
  a S S S S S S S S S S S S S S S +E    S S S S S S S
|-----5---5---5---5---5---5-----0-(0)---0-----0-----0-|
|-----5---5---5---5---5---5---------------------------|
|-5s6---6---6---6---6---6---0h1-----------0h1---0h1---|
|-----------------------------------------------------|
|-----------------------------------------------------|
|-----------------------------------------------------|
|
| Gtr III
|   |----6----| |----6----| |-----6-----| |----6----|
|   S S S S S S S S S S S S S S S  S  S S S S S S S S
|---9-9-9-9-9-9-9-9-9-9-9-8---7----7----7---7---7---7-|
|-----------------------------------------------------|
|---9-9-9-9-9-9-9-9-9-9-9-8-7---7-----7---7---7---7---|
|-----------------------------------------------------|
|-----------------------------------------------------|
|-----------------------------------------------------|


  F#m                                      G
                        |--3--|  |--3--|   |----6----|   |----6----|
  a   E        E        E     S  E     S a S S S S S S   S S S S S S
|--------------2--------------2--------2-----3-5-3-3-3---3-5---3-3-3-|
|-1s==2-----------------2------------------------3-3-3---3---3-3-3-3-|
|-1s==2--------------------------2-------3s4-----4-----------4-------|
|--------------------------------------------------------------------|
|--------------------------------------------------------------------|
|--------------------------------------------------------------------|
|
|     |------6-------|  |------6-------|   |----6----|   |----6----|
|     S  S  S  S  S  S  S  S  S  S  S  S a S S S S S S a S S S S S S
|---/14-14----14----14----14----14----14-----7---7---7-----8---8---8-|
|--------------------------------------------------------------------|
|---/14----14----14----14----14----14----5s7---7---7---7s8---8---8---|
|--------------------------------------------------------------------|
|--------------------------------------------------------------------|
|--------------------------------------------------------------------|


  A                           N.C.(E)
  Gtr I
    |----6----| |----6----|                |-3--| |-3-|
  a S S S S S S S S S S S S a E     E     +E    S E   S
|-----5---5---5---5---5---5---------0-----(0)---0-0---0-|
|---------5---5---5---5---5-----------------------1-----|
|-5s6---6---6---6---6---6---0h1-------------------------|
|-------------------------------------------------------|
|-------------------------------------------------------|
|-------------------------------------------------------|
|
| Gtr III
|   |----6----| |----6----|   |----6----|  |----6-----|
| a S S S S S S S S S S S S   S S S S S S  S  S S S S S
|-----9---9---9---9---9---8-----7---7---7-----7---7---7-|
|-------------------------------------------------------|
|-8s9---9---9---9---9---8-----7---7---7----7----7---7---|
|-------------------------------------------------------|
|-------------------------------------------------------|
|-------------------------------------------------------|


  F#m                                      N.C.(G)
                        |--3--|  |--3--|   |-3-| |-3-|   |-----6-----|
  a   E        e        E     S  E     S a E   S E   S   S S S a S S S
|--------------2--------------2--------2-------3-----3---5p3---3h5p3------|
|-1s==2--------2--------------2------------------3-------------------3----|
|-1s==2-----------------2--------2-------3s4-----4-----------4------------|
|-------------------------------------------------------------------------|
|-------------------------------------------------------------------------|
|-------------------------------------------------------------------------|
|
|     |------6-------|  |------6-------|   |----6----|   |-----6-----|
|     S  S  S  S  S  S  S  S  S  S  S  S   S S S S S S a S S S   S S S
|-------14----14----14----14-14-14----14-----7---7---7-----8-----8---8----|
|-------------------------------------------------------------------------|
|---/14----14----14----14----14----14------7---7---7---7s8---8-----8------|
|-------------------------------------------------------------------------|
|-------------------------------------------------------------------------|
|-------------------------------------------------------------------------|


  (A)                           (E)
  a E     S   S   a S   S   S   S   a S   S   S   S   S   S   e
|---------5-------------9---9---9---------7-------7-------7---7-----|
|-------------------------------------------------------------------|
|-5s6---------6---7s9-------9-------9s7-------7-------7-------7-----|
|-------------------------------------------------------------------|
|-------------------------------------------------------------------|
|-------------------------------------------------------------------|
|
|   |-----6-----|   |------6------|   |------6------| |-----6-----|
| a S S S S S   S   S S   S S S   S   S S   S S S   S S S   S S S S
|-----9---9-----9-----9-----8-8---------7-----7-----7---7-----7---7-|
|-------------------------------------------------------------------|
|-8s9---9---9-------9-----9-8-----8---7-----7---7-----7-----7---7---|
|-------------------------------------------------------------------|
|-------------------------------------------------------------------|
|-------------------------------------------------------------------|


  F#m     N.C.(D)
            PM|
        |3|     |-3-|  |--3---|
  e Q   E S e e E a S +S  S a S
|-2------------------------------|
|-2------------------------------|
|-----------------7--------------|
|-----------------7h9-(9)--------|
|-----------5-5-------------7h9--|
|---------5----------------------|
|
| e E Q     H
|-5------------------------------|
|--------------------------------|
|-6------------------------------|
|--------------------------------|
|--------------------------------|
|--------------------------------|


  (A)           (Bm)
  Gtr I
        |3| |3|           |3| |-3-|
  E E a E S E S  E.  S a  E S E   S
|-----------------------------------|
|-------------------10-7h10p7-----0-|
|---6-6s7-6-6-6--------7----------0-|
|---7-------7---------------------0-|
|-----------------------------9-----|
|-5-------------/7------------------|
|
| Gtr IV
|                             |-3-|
| H              Q        E   S S S
|-----------------------------------|
|-----------------------------------|
|-----------------------------------|
|-----------------------------------|
|-----------------------------------|
|-------------------------------0-3-|


  D                         G               G#
                            |---3---|       |--3--|
  E     E     E     E       E   E   E       E E   E
|---------------------------3---3---3-------4-4---4-|
|-------------7-----7-------3---3---3-------4-4---4-|
|-------------7-----7-------4---4---4-------5-5---5-|
|-7-----7-----7-----7-------5---5---5-------6-6---6-|
|-5-----5-----5-----5-------x---x---x-------x-x---x-|
|---------------------------3---3---3-------4-4---4-|
|
| |----6----| |----6----|   |----6----|     |3|
| S S S S S S S S S S S S a S S S S S S a   E S e
|-----------------------------------------------5---|
|---------------------------------------------5-----|
|-------------------------------------5-7b9r7-------|
|-----------------------------5---5-7---------------|
|-------------3---3-5-3-5-5s7---7-------------------|
|-3-0-3-5-3-5---5-----------------------------------|


 Guitar Solo
  A                   E                  F#m             N.C.(G)
  Gtr IV
  ~~~~                       ~~~                            ~~
                                                                 |-3-|
  Q.         S     S  E    E E.      S   Q.           E   S E.   E   S S   S
|--------------------------------------|-------------------------------------|
|-8b10-------8b10r(8)------------------|-5b7r========(5)---------------------|
|---------------------7pb9-7-7b9-------|------------------2s5----4p==2h4p==2-|
|------------------------------------0-|-------------------------------------|
|--------------------------------------|-------------------------------------|
|--------------------------------------|-------------------------------------|
|
| Gtr I
|        |3|                 |-3-|           |3| |3|             |3|   |3|
| E    E E S E        E    E E   S E     E   E S S E  E   E    E S E   S E
|------5-------------------------0-----|-2-----2---------------0-0-0---------|
|------5-5-5----------0----0-----0-----|-2---2---2-2--2--/5----5-5-5-----0---|
|-6----6-7-6----------1----1-1-----1---|-2---2---4-2--2----------------0-0---|
|-7----7-7-7-7\-------2----2-------2---|-4---4---4----4--/5------------0-----|
|-x----x--------------2----2-------2---|-x-----------------------------------|
|-5----5--------------0----0-------0---|-2-----------------------------------|


  A                     E
                         ~~~
  E     +E  S S S S      Q     S    +S     S  S
|-------------2-----------------------------------|
|-----------2---5---------------------------------|
|-4b6---(4)-------4b6r==(4)----4b6==(4)r==(4)p2---|
|-------------------------------------------------|
|-------------------------------------------------|
|-------------------------------------------------|
|
| |-3-|         |--3--|        |---3----|
| E   S  E  E   E     S  E  E +E        S  E
|-----------5---------------0-(0)-------0--0------|
|-----------5---------5-----0-(0)-------0--0------|
|-6---6-----6---------6--1--1-(1)-------1--1------|
|-7---7--7--7---7-----7--2--2-(2)----------2------|
|-x---x-----x---x--------2--2-(2)----------2------|
|-5---5-----5---5--------0-----------------0------|


  F#m             Gadd9
    ~~~~~~~~~~~~~~~~~
  a H             H
|-------------------------------------|
|-------------------------------------|
|-------------------------------------|
|-2s4-------------5-------------------|
|-------------------------------------|
|-------------------------------------|
|
|       |3|  |3-| |3| |3| |----6----|
|   E E E S  E  S S E S E S S S S S S
|-------2-2-(3)-2-5p3-5p3-5p3-3-5p3-3-|
|-----2-2---------3---3---3-----3-----|
|-----------------4---4---4-----4-----|
|---4-------------5---5---5-----3-----|
|---x---------------------------------|
|---2---------------------------------|


  A                    E
                  ~~~~~~~~~
                                          |3-|
  Q      +E.      S    +Q     S    +S     E  S
|----------------------------------------------|
|----------------------------------------------|
|-4b6====(4)r====(4)---(4)----4b6==(4)r==(4)-2-|
|----------------------------------------------|
|----------------------------------------------|
|----------------------------------------------|
|
|         |3-| |--3--|        |---3----|
| E    E  E  S E     S  E  E +E        S  E
|-5----5--5--5---------------------------------|
|-5----5--5--5-x-----x-------------------------|
|-6----6--6--6-x-----x-----------------1-------|
|-7----7--7----x-----x--2--2-(2)-------2-------|
|-x-------x-------------2--2-(2)-------2-------|
|-5-------5-------------0--0-(0)-------0--0----|


  N.C.(F#m)            G
     ~~                  ~~
               |3|                |3|
  a  Q         E S E   S E.       E S E
|----------------------------------------|
|----------------------------------------|
|--------------2---2---------------------|
|-2h=4-----------4-----4s5--------5-7-5\-|
|----------------------------------------|
|----------------------------------------|
|
|    |3|  |3|  |3| |3| |-3--| |3| |3|
|    E S  E S  E S E S E    S E S E S E
|------5----5---------------3---3--------|
|--------/7---/5-5-5---3----3-3-3-3-3-3--|
|---/6---/6---/6-6-6-6-4------4---4-4-4--|
|--------------------7-5------5---5-5-5--|
|----------------------x------x---x-x-x--|
|----------------------3------3---3-3-3--|


  A                     E
                               ~~~~~
   |3| |-3-| |3-|
   E S E   S E  S  e     E     Q        E
|------5-----8-10-10b12-10b12-10b12--------|
|----5---/10-------------------------------|
|-/6---------------------------------------|
|------------------------------------------|
|------------------------------------------|
|------------------------------------------|
|
|      |-3-| |3-|                   |3|
|  E   E   S E  S  E     E     E    E S E
|------------------------0-----0----0-0-0--|
|----------5----5--------0-----0----0-0-0--|
|------6---6-7--6--------1-----1----1-1-1--|
|--7---7---7-7-----7-----2-----2-----------|
|--x---x-----------------2-----2-----------|
|--5---5-----------------0-----0-----------|


  F#m                             G6
                                   ~~~
   Q.         a      +S    S       Q.        E
|-12b14======12pb14-(12)r(12)-----10--------10---|
|------------------------------------------------|
|------------------------------------------------|
|------------------------------------------------|
|------------------------------------------------|
|------------------------------------------------|
|
|                     |---3----|        |3|  |3|
|  E     E E          E        S   E  E E S  E S
|--------2-2----------2---------------0-0-0--0-0-|
|--2-----2-2----------2------------3--3-3-3--3-3-|
|--2-----2-2----------2-------(0)--4--4-4-4--4-4-|
|--4-----4-4----------4-------(0)--5--5-5-5--5-5-|
|--x-----x-x----------x------------x--x-x-x--x-x-|
|--2-----2-2----------2------------3--3-3-3--3-3-|


  N.C.(A)                  (E7)                                  (F#m)     (G)
                            ~~~~~~~~~~                            ~~~~~~     ~~~~~~
                                   |------------6------------|
   Q       a      +S    E.  E  E  +S   S      +S   +S    S   S    Q   E  e   H
|-12b14===12pb14-(12)r(12)-------------------------------------|--------10--12b14---------------------|
|--------------------------10-10-(10)-12b14==(12)-(12)r(12)p10-|-12--12-------------------------------|
|--------------------------------------------------------------|--------------------------------------|
|--------------------------------------------------------------|--------------------------------------|
|--------------------------------------------------------------|--------------------------------------|
|--------------------------------------------------------------|--------------------------------------|
|
|  TP                       TP TP                   TP            TP
|                                                                                               |3-|
|  H                        E  Q                    E             H          S     T  T  E    E E  S
|-/9-----------------------/9--7--------------------7\---------|--2--------/14----14-14-14\-/16-------|
|--------------------------------------------------------------|--------------------------------x\----|
|-/9-----------------------/9--7--------------------7\---------|--2--------/14----14-14-14\-/16-x\-x--|
|--------------------------------------------------------------|-----------------------------------x--|
|--------------------------------------------------------------|--------------------------------------|
|--------------------------------------------------------------|--------------------------------------|


  (A)                            (E7)        (F#m)                  (G)   (G#)
                                  ~~~                       ~~~~~    ~~~~~~~~
   E      E   S  S      +S    S   Q.    E     S      T   T  E  E  E  E  E  E E
|-12b14r(12)-12-12b13==(12)r(12)-----------|-----------------------------------|
|--------------------------------10----12--|-12b14r(12)p10-------10------------|
|------------------------------------------|---------------11-11----12-12-12---|
|------------------------------------------|-----------------------------------|
|------------------------------------------|-----------------------------------|
|------------------------------------------|-----------------------------------|
|
|  TP                    TP       TP    TP    TP                     TP    TP
|  Q.                    E        Q.    E     H                      Q     Q
|-/9---------------------8--------7-----7\-|--2---------------------/7-----8---|
|------------------------------------------|-----------------------------------|
|-/9---------------------8--------7-----7\-|--2---------------------/7-----8---|
|------------------------------------------|-----------------------------------|
|------------------------------------------|-----------------------------------|
|------------------------------------------|-----------------------------------|


    (A)                                    (E7)
            ~~~~~~~~~~~                     ~~~
     S   S  E      +E   a       a    S   S  Q    T  T  T  T  E
|---12--14-14b17==(14)-14pb16-(14)r(14)-12-14---12h14p12----12--|
|--------------------------------------------------------14-----|
|---------------------------------------------------------------|
|---------------------------------------------------------------|
|---------------------------------------------------------------|
|---------------------------------------------------------------|
|
|    TP                              TP     TP
| a  Q.                              E      Q.               E
|-8s=9-------------------------------8------7----------------7\-|
|---------------------------------------------------------------|
|-8s=9-------------------------------8------7----------------7\-|
|---------------------------------------------------------------|
|---------------------------------------------------------------|
|---------------------------------------------------------------|


  Slower Q=66
  F#m           D5
          ~~~~                             ~
   E     +Q   E  E        E       E    S   S
|--------------------------------------------|
|-12b14-(12)----14b17r==(14)\----------0-----|
|-------------------------------/12\-------5-|
|--------------------------------/x\---------|
|--------------------------------------------|
|--------------------------------------------|
|
|                |-----3------|   |--3---|
|  H             E    E       E   E  E   E
|--2-------------5----5-----------5--5-------|
|----------------3----3-----------3--3---0---|
|--2-------------2----2-------0---2--2---0---|
|----------------0----0-------0---0--0---0---|
|--------------------------------------------|
|--------------------------------------------|


  A5         D5
                           |--3--| |--3--|
  +E  Q.     +Q            S S   S E     S
|--------------------------------------------|
|-----8b10---(8)-----------5-----------------|
|-(5)-8b9--------------------8---5-----------|
|----------------------------------7b9---7b9-|
|--------------------------------------------|
|--------------------------------------------|
|
|             |---3----|   |------3------|
|  H          E  a E a E a E   a E     S S
|--5----------5--5---5---5-----5-------------|
|--5----------3--3---3---3-----3-------------|
|--2----------2--0h2-0h2-0h2---0h2-----------|
|--2----------0--0---0---0-----0-------------|
|--0-----------------------------------3-0---|
|--------------------------------------------|


  A5                    D5
                      ~~~~~~
  |-----6-----| |-3-|
  S   S S S S S S S S E +Q.                 E
|-------------------------------------------------|
|-------------------------------------------------|
|-7b9-7-5-----------------------------------------|
|---------7-5---------7-(7)-----------------5-----|
|-------------7-5---------------------------------|
|-----------------8-5-----------------------------|
|
|                        |---3----|   |----3----|
| H                      E  a E a E a E a E   S S
|-5----------------------5--5---5---5---5---------|
|-5----------------------3--3---3---3---3---------|
|-2----------------------2--0h2-0h2-0h2-0h2---0---|
|-2----------------------0--0---0---0---0-------2-|
|-0-----------------------------------------------|
|-------------------------------------------------|


  A5
 3/4
  |-----6-----| |-3-|
  S   S S S S S S S S T    +T   T  T Q
|----------------------------------------|
|----------------------------------------|
|-7b8-7-5--------------------------------|
|---------7-5----------------------------|
|-------------7-6-5-3-5b6==(5)r(5)p3p0---|
|----------------------------------------|
|
| H.
|-5--------------------------------------|
|-5--------------------------------------|
|-2--------------------------------------|
|-2--------------------------------------|
|-0--------------------------------------|
|----------------------------------------|


  N.C.
 4/4
  W          W
|----------|------|
|----------|------|
|----------|------|
|----------|------|
|----------|------|
|----------|------|
|
| W          W
|----------|------|
|----------|------|
|----------|------|
|----------|------|
|----------|------|
|----------|------|


 Outro Solo
  C#                   G#               A#m                B         B#
  Gtr IV
   ~~~~~                      ~~~~~      ~~~~~                        ~~~~~
           |----3----|
   Q.      S      S  S  E     Q     E    Q      e     e    e    e     Q
|--9-------9--------------------------|-------------------------------------|
|-12b14---12b14r(12)p9--9-----9-------|-11-----11-----9----7----7-----9-----|
|----------------------11b13-11b13----|-13b15--13b15-11b13-9b11-9b11-11b13--|
|-------------------------------------|-------------------------------------|
|-------------------------------------|-------------------------------------|
|-------------------------------------|-------------------------------------|


   ~~~~~~~~~~~                          ~~~~~
           |-3-|       |---3---|
   Q      +E   S      +S    S  S  E     Q     E
|--9------(9)--9------(9)-----------------------|
|-12b14--(12)-12b14==(12)r(12)p9--9-----9-------|
|--------------------------------11b13-11b13----|
|-----------------------------------------------|
|-----------------------------------------------|
|-----------------------------------------------|


   ~~~~~
                       |-3--| |3|
   H        E     E    S  S S E S
|---------------------------------|
|-11-------12----12---------9-9-9-|
|-13b15----14b16-14b16-6s11-------|
|---------------------------------|
|---------------------------------|
|---------------------------------|


   ~~~~~~~~~~~                       ~~
           |-3-|       |---3---|
   Q      +E   S      +S    S  S  E  Q  E
|-11b13--(11)-11b13==(11)r(11)p9-11-11----|
|-----------------------------------------|
|-----------------------------------------|
|-----------------------------------------|
|-----------------------------------------|
|-----------------------------------------|


                      ~~
           |---3---|
   E      +S    S  S  E E  E     E    S  S     +E
|-11b13==(11)r(11)p9------12b14-12b14---15b18-(15)-|
|--------------------11-9--------------------------|
|--------------------------------------------------|
|--------------------------------------------------|
|--------------------------------------------------|
|--------------------------------------------------|


         ~~~~~~~                ~~~
   E     E       +E    S  S  a  Q.    E
|-15b18-15pb16==(15)r(15)------------------|
|---------------------------13h14----16b17r|
|-------------------------0----------------|
|------------------------------------------|
|------------------------------------------|
|------------------------------------------|


                         ~~~~~~~    ~~~~~
             |---3----|
    a       +S    S   S  E  +E.  S  Q     S  E    S
|----------------------------------16b18----16b18-x-|
|-(16)b18==(16)r(16)p14---------14------------------|
|-----------------------15-(15)---------------------|
|---------------------------------------------------|
|---------------------------------------------------|
|---------------------------------------------------|


                                       ~~~
         |--3--|  |--3--|                             |-3--|
   E     S  S  S  E     S  E     S     E.  S  S      +E    S
|-16b18-14-16-14-13----16----------------------------------------|
|----------------16b18----16b18-16b18-16--14-16b18==(16)r(16)b18-|
|----------------------------------------------------------------|
|----------------------------------------------------------------|
|----------------------------------------------------------------|
|----------------------------------------------------------------|


                               ~~~~~~~~~
                     |--3---|
   +E   T      +T    T   T  T  Q   Q     Q
|---------------------------------16b18------|
|-(16)-16b18==(16)r(16)p14----14---------x\--|
|--------------------------15------------x\--|
|----------------------------------------x\--|
|--------------------------------------------|
|--------------------------------------------|


    S S S S  T T S S a S S S T T S T T S T T T T
|-------9---13p9---9-----8---8p4---8p4---8p4-----|
|-----9---9------9---9s4---4-----4-----4-----4s6-|
|-/10--------------------------------------------|
|------------------------------------------------|
|------------------------------------------------|
|------------------------------------------------|


  S S T T S T T S T T S  T T S  T T S  T T S  T T T T
|-9---9p6---9p6---9p6---11p7---11p7---12p8---12p8-----|
|---6-----6-----6-----6------7------8------8------8s9-|
|-----------------------------------------------------|
|-----------------------------------------------------|
|-----------------------------------------------------|
|-----------------------------------------------------|


   T T S  T T S  T T S  T T a S T T S T T S T T S T T S
|-13p9---13p9---13p9---13p9-----8p4---8p4---8p4---8p4---|
|------9------9------9------9S4-----4-----4-----4-----6-|
|-------------------------------------------------------|
|-------------------------------------------------------|
|-------------------------------------------------------|
|-------------------------------------------------------|


  T T S T T S T T S T T S  T T S  T T T T   S  S  T T T T
|-9p6---9p6---9p6---9p6---11p7---11p7-----(12)---12p8-----|
|-----6-----6-----6-----9------7------7s8------8------8s9-|
|---------------------------------------------------------|
|---------------------------------------------------------|
|---------------------------------------------------------|
|---------------------------------------------------------|


       ~~~~~
            |------6-------|  |-3--|              |-----------7-----------|
  S S  E    S  S S  S    S S  S S  S T T  T    T  S    S  S    S  S    S  S
|-9---------9----9---------9------12-9---------9-------9-------9-------9-------|
|---9-12b14---12-9-------9---12p9------9-12b13---12b13---12b13---12b13---12b13-|
|------------------11b13-------------------------------------------------------|
|------------------------------------------------------------------------------|
|------------------------------------------------------------------------------|
|------------------------------------------------------------------------------|


                     ~~~~~~~~~~                         ~~
  |--------6---------|          |------6-------|
  S  S    S  S    S  S     +Q   S  S S  S    S S  E     E
|-9-------9-------9-------------9--------------9-12b16-12-|
|---12b13---12b13---12b13-(12)----12p9-------9------------|
|--------------------------------------11b13--------------|
|---------------------------------------------------------|
|---------------------------------------------------------|
|---------------------------------------------------------|


             ~~           ~~           ~~            ~~~~
  |----3-----| |----3-----| |----3-----| |-3--|
  S S  E     E S S  E     E S S  E     E S S  S     +E
|-9---12b16-12-9---12b16-12-9---12b16-12-9--------------|
|---9------------9------------9------------9-12b14-(12)-|
|-------------------------------------------------------|
|-------------------------------------------------------|
|-------------------------------------------------------|
|-------------------------------------------------------|


  |------6-------|  |-------3-------| |-----6-----|
  S  S S  S    S S  S S  S     S S  S S  S  S S S S a  S  S e
|-9--------------9--------------------------------------------|
|---12-9-------9---12-9---------------------------------------|
|--------11b13----------11b13-11-9----------------------------|
|----------------------------------11-9---------------------9-|
|---------------------------------------11-10-9-9-7-9s11-11---|
|-------------------------------------------------------------|


                                         ~~
   E     E S  S S S a  S S  E     +S  S  E
|-------------------------------------------|
|-------------------------------------------|
|-------------------------------------------|
|-11b14-11-9-11-9--------9-11b13-(11)-9-----|
|-----------------7-9s11----------------11--|
|-------------------------------------------|


                  ~~~
   a  S  S  E     E.  S    S  S  E  E  S  S
|-------------------------------------------|
|-------------------------------------------|
|-------------------------------------------|
|-------11-13b15-13--11\--------11-10-------|
|-11s13------------------/11-11-------11-10-|
|-------------------------------------------|


         ~~~~~~          ~~~~~
               |-3--|         |------6-------|
  S S  S S +E  S  S S S  E.   S  S S  S    S S
|---------------------9-------9--------------9--|
|-------------------9---12b14---12-9-------9----|
|--------------9s10------------------11b13------|
|-----11-9-(9)----------------------------------|
|-9-8-------------------------------------------|
|-----------------------------------------------|


                                  ~~~~~
   |-3--|     |3|  |-----6-----|
   S S  S     E S  S S  S S  S S  E    S S S S E
|----------------------------------------9-9-9----|
|-12p9---------------------------------9---9-9-x\-|
|------11b13-11-9--------------9-11b13---------x\-|
|-----------------11-9----9-11--------------------|
|----------------------11-------------------------|
|-------------------------------------------------|


                                                                  TP
    S  T  T  T  T  T  T  T  T  T  T  +S   S    S  T  T  T  T  S   Q
|-----16-16----16----16----16----16-(16)-16\-/16-16----16----16\-/4S=|
|-/18-18----18----18----18----18---------18\-/16----16----16-16\-/4S=|
|--------------------------------------------------------------------|
|--------------------------------------------------------------------|
|--------------------------------------------------------------------|
|--------------------------------------------------------------------|


   TP
   H    H
|-18---------*|
|-18---------*|
|------------*|
|------------*|
|------------*|
|------------*|



Duration Legend
---------------
W - whole; H - half; Q - quarter; E - 8th; S - 16th; T - 32nd; X - 64th; a - acciaccatura
+ - note tied to previous; . - note dotted; .. - note double dotted
Uncapitalized letters represent notes that are staccato (1/2 duration)
Irregular groupings are notated above the duration line
Duration letters will always appear directly above the note/fret number it represents the
duration for.  Duration letters with no fret number below them represent rests.  Multi-
bar rests are notated in the form Wxn, where n is the number of bars to rest for.  Low
melody durations appear below the staff

Tablature Legend
----------------
 h   - hammer-on
 p   - pull-off
 b   - bend
 pb  - pre-bend
 r   - bend release (if no number after the r, then release immediately)
 /\  - slide into or out of (from/to "nowhere")
 s   - legato slide
 S   - shift slide
 - natural harmonic
[n]  - artificial harmonic
n(n) - tapped harmonic
 ~   - vibrato
 tr  - trill
 T   - tap
 TP  - trem. picking
 PM  - palm muting
\n/  - tremolo bar dip; n = amount to dip
 \n  - tremolo bar down
 n/  - tremolo bar up
/n\  - tremolo bar inverted dip
 =   - hold bend; also acts as connecting device for hammers/pulls
 <> - volume swell (louder/softer)
 x   - on rhythm slash represents muted slash
 o   - on rhythm slash represents single note slash

Misc Legend
-----------
 |  - bar
||  - double bar
||o - repeat start
o|| - repeat end
*|  - double bar (ending)
 :  - bar (freetime)
 $  - Segno
 &  - Coda
Tempo markers -  = BPM(8/16=s8/s16), where s8 = swing 8ths, s16 = swing 16ths

comments
print report bad tab
1 comment total.
0 reply
braindamage828 wrote on July 15 2009, 03:32 pm

this is hard to follow. maybe some times or lyrics would help ease this tab along, but what I've played works so good tab

I want to post or [tab]
guest
You may want to rate the tab now too:
select rating
Please do not post tabs as comments. Select "correction" instead!