Oops, an error
Loading. Please wait.

Born Under A Bad Sign Tab

ver1
ver1

Whole song

Interactive

More versions @911Tabs.com
42,834 views 69 this week
3 commentsread comments
1 2 3 4 5
excellent!
x 12
Autoscroll
+/-
esc
set tempo
stop
Contributor
Hey! There's an official Ultimate Guitar app which is ideal
for learning songs when you're away from computer. Get the app
WARNING: You are trying to view
                                    content from Ultimate-Guitar.com
                                    in an unauthorized application,
                                    which is prohibited.

                                    Please use an official Ultimate
                                    Guitar Tabs application for iPhone,
                                    iPad or Android to access legitimate
                                    chords, guitar, bass, and drum tabs
                                    from Ultimate-Guitar.com database.

                                    Type "ultimate guitar tabs" in Apple
                                    App Store's or Android Market's
                                    search to find the application.
Title     : Born under a bad sign
Artist    : Jimi Hendrix
Album     : Blues
-------------------------------------------------

#----------------------------------PLEASE NOTE---------------------------------#
#This file is the author's own work and represents their interpretation of the #
#song. You may only use this file for private study, scholarship, or research. #
#------------------------------------------------------------------------------##

                              BORN UNDER A BAD SIGN
                           As recorded by Jimi Hendrix
                           (From the 1994 Album BLUES)

Music by Booker T. and William Bell
Transcribed by Cam Penny

Gtr I (Eb Ab Db Gb Bb Eb) - 'Untitled'

 Intro
  Moderately Slow Blues Q=78
  N.C.(B7)
 4/4
  Gtr I
                       <
  Wx3          H    E  E       +E.   S
|------------|--------12pb14==(12)r-10-||
|------------|-------------------------||
|------------|-------------------------||
|------------|-------------------------||
|------------|-------------------------||
|------------|-------------------------||


  N.C.(B7)
      ~~~                       ~~~~~~~~~~~~~
                                                    |3-|
   S  E.  E      +E    S  S E E E       +Q    E a e E  S S S  S  S E
|-12-----10b11==(10)r----------------|-----------7-7-----------------|
|----12-------------------------------|-------x-7-----10-7------------|
|----------------------x/-------9b11==|=(9)r---------------7--9-------|
|----------------------x/-x-----------|----------------------(0)------|
|----------------------x/-------------|--------------------------9----|
|-------------------------------------|-------------------------------|


    ~                         ~~~~~~           ~~~~~~~~~~~~~
                                       |---3---|        |---3---|
  a Q  T T  T T  E H      Q   Q       +E    E  E       +E    E  E
|-----------------------|-----------------------------------10-------|
|-----------------------|----10b12===(10)r-10-10pb12==(10)r----10b12-|
|---7-------------------|--------------------------------------------|
|-x----9p7--------------|--------------------------------------------|
|----------h9-7p--------|--------------------------------------------|
|-----------------------|--------------------------------------------|


                                            ~~~~
   |---5----|              |-3-|
   S S  S S S     +S   T T S S S T T E.    +Q
|------------------------------------------------|
|-10-7-10-7----------------------7---------------|
|-----------9b11==(9)r-9-7---7-9---7-9b11==(9)r--|
|--------------------------9---------------------|
|------------------------------------------------|
|------------------------------------------------|


  |-3--| |-3-|
  E    S S S S E S S     +S  +S  S S     +Q
|----------------------------------------------|
|----------------7---------------7-7-----(7)---|
|-9b11-9-7---------9b11==(9)r(9)---9b11==(9)r--|
|----------9-----------------------------------|
|----------------------------------------------|
|----------------------------------------------|


                                                                 ~~~~~~~
  |-------3-------| |-3-|                           |3-|
  S a     +S  +T  T S S S     +S    S E    E a     +E  S S S E   Q  +S  S S S S S S S S S E
|--------------------------------------------------------------|------------------------------|
|-7--------------------------------10--------------------------|------------------------------|
|---9b11==(9)r(9)p7---7h9b11==(9)r----9b11---9pb11r(9)-7-9-7---|-7--(7)-----------------------|
|-------------------9----------------------------------------9-|----------7h9-----------------|
|--------------------------------------------------------------|----------7---7-9-5-7-5-------|
|--------------------------------------------------------------|------------------------5h7--|


  (F#7)                        (E7)
             |3|                   |--3--|
   e  E a  E E S e E E S T T   E E E    +S   E E S S  E   E
|----------------------------|------------------------------------|
|----------------------------|------------------------------------|
|----------------------------|------------------------------------|
|-----x---h7-7-------7-7-----|---x-7b9==(7)r-7-9-8-7--------------|
|-----x-7------9p7-------9p7-|---x--------------------------------|
|-/x/------------------------|-----------------------10-(10)b10.5-|


  (B7)
                                     ~~                   ~~~~~~
  Q     e E E      E   E    E        Q.   S  S S S      S S +E  E
|-------x--------------7---10b10.5-|-7----7------------------------||
|-------x---------10---------------|--------10-7-------------------||
|---------9-9b11==(9)-(9)r---------|-------------7b7.5-------------||
|-7tr9-----------------------------|-------------------^9----------||
|----------------------------------|-------------------^9-9-(9)----||
|----------------------------------|-------------------------------||


  N.C.(B7)
                       ~~~~~                              ~~~~~
  S S S s  e  E       +E   S S Q    E  a      +Q    +E  S E.    a +E  S S
|-9-----7------------------7------|---------------------------------------|
|---------10-10pb12==(10)r---7----|---10b12==(10)r=(10)-7-----------------|
|---9-7---------------------------|-----------------------9b11==9r(9)-7---|
|---------------------------------|-------------------------------------9-|
|---------------------------------|---------------------------------------|
|---------------------------------|---------------------------------------|


                                                        ~~~~
                    |-3--|
  S     +S      +E  S S  S E E. S    +S   E.     +e   E H        Q
|----------------------------------------------|------------------------|
|----------------------------------------------|-----------------7b9----|
|-9b10==(9)b10==(9)r9p7---------7b9==(7)r-7b9==|=(7)r---9b11----(7)b8---|
|-----------------------h9---------------------|------------------------|
|----------------------------------------------|------------------------|
|----------------------------------------------|------------------------|


            |3|     |-----6------|  |-3-|
  E    +E   E S S S S S S S    S S  S S S S     +S
|--------------------------------7-------------------|
|-7b9==(7)r-7---7--------------7---10-7--------------|
|-------------9---9-7---7-9b10----------9-9b11==(9)r-|
|---------------------9------------------------------|
|----------------------------------------------------|
|----------------------------------------------------|


                |-3-|     |3-|        |--3--|
  T T E. E s s  S S S  a  E  S  S  S  S  S  S
|------------7-10-7---10s12-10-12-10-12-10----|
|----------7--------7----------------------12-|
|-9p7-----------------------------------------|
|---------------------------------------------|
|---------------------------------------------|
|---------------------------------------------|


                         ~
   |--3---|       |-3--|
   S  S   s S  S  E    S E  E  E  e  E
|-10-(0)------10-10b11-7-7----------12b13-|
|--------10----------------10----x-------|
|------------------------------x/-x-------|
|------------------------------x/-x-------|
|------------------------------x/---------|
|-----------------------------------------|


                                                   (F#7)
   |---3---|                              |-3--|                    |-3--|
   E      +S    E      +E    E S s E a E +S  S S    E     E    S S  S S  S E E E  S S
|-12b13==(12)r-10b11==(10)r-----x-----------9---|-12b14-12b13-9-9-----------9-9---9--|
|--------------------------------x---8s9-(9)---9-|---------------9-12-9--------9------|
|------------------------------x-----------------|----------------------11-9-----------|
|------------------------------------------------|-------------------------------------|
|------------------------------------------------|-------------------------------------|
|------------------------------------------------|-------------------------------------|


  (E7)
                      ~~~~~~
                            |-3--|                   |-3-|
  S S S  S      +s    E.    S S  S      +S    S S S  S S S
|-----7---------------------7---10b12==(10)r-10-7---10-7---|
|-------10b11==(10)r-10pb12---7-------------------7----7-7-|
|-9-7------------------------------------------------------|
|-9--------------------------------------------------------|
|----------------------------------------------------------|
|----------------------------------------------------------|


  (B7)
        ~~                 ~~~~~~~                                           PM
             |3|                     |-3--|            |-3-| |3|
   t  t E. E S E  e  E     Q         S S  S      +E    S S S E S S     S E a E S S
|-10-10-7------7-10-10b12-10b10.5--|---7-10b12==(10)r-10-7--------------------------||
|------------7---------------------|-7---------------------7------------------------||
|----------------------------------|-------------------------9-9-7b7.5--------------||
|----------------------------------|-----------------------------------9-------7h9--||
|----------------------------------|-------------------------------------9-x---0----||
|----------------------------------|-----------------------------------------x------||


   |---3---|              |-3-|      |-3-| |-3-|
   S   S   S  a E  S   S  S S S e  E S S S S S S
|------------------------------------------------|
|-----------------(7)h(8)-7-----x/-9-7h8h9-7h8h9-|
|-(7)h(8)p(7)-7h8--7h==8--7h8p7-x/-9-7h8h9-7h8h9-|
|---------------7--7------------x/-9-7h8h9-7h8h9-|
|------------------------------------------------|
|------------------------------------------------|


                           |-3-|
  e S S  S   S  E    e S S S S S S  S
|--------------------x-----------------|
|-x-----(7)h(8)------x-----------7-----|
|-x-7h8--7h==8--7tr8---7h9-7h8h9-7--9--|
|-x-7----7------7------7h9-7h8h9---(9)-|
|--------------------------------------|
|--------------------------------------|


                     |-3-| |-3-| |-3-|                           |3-| |-3-|
  E S S S S E     e  S S S S S S S S S   e S S S S E     e   E   E  S S S S
|----------------(9)-------------------|----------------(9)-----------------|
|--------------------7-----7-----------|-x-7---7------------/9-/(9)p7-----x-|
|---7-8-7h8-7tr8-----7-----7h8h9-7h8h9-|-x-7h8-7h8-7tr8-----/9--/9p=7h9p7---|
|---7---7---7--------7h8h9-7h8h9-7h8h9-|---7-------7--------/9--/9p=7h9p7---|
|-x------------------------------------|------------------------------------|
|-x------------------------------------|------------------------------------|


              |-3--|     |3| |3| |3|
  E E    E    E    S e a E S E S E S
|------------------------------------|
|------------------x-x---------------|
|---7tr8-7tr8-7tr8-x-x-7h9p7h9p7h9p7-|
|-x-7----7----7------x-7h9p7h9p7h9p7-|
|-x----------------------------------|
|------------------------------------|


                              |3| |3|
  S   S  E     E     S   S  E E S E S S S
|------------------------------------------|
|--------7-----7------------x-----9p7-9p7--|
|--------7tr8--7tr8---------x-9p7-9p7-9p7--|
|-7-----------(7)---(7)p(0)---9p7-9p7-9p7--|
|---h(9)-----------------------------------|
|------------------------------------------|


                                  |3|
  e S S E    E    e S S S S S S   S e E    E    a E E S S S S E
|-------------------------------|---x---------------------------|
|---7-----------------------9p7-|-x---7-------------x-----------|
|---7h8-7tr8-7tr8-x-9p7-9p7-9p7-|-x---7tr8-7tr8-----x-9p7-9p7-9-|
|-------7---------x-9p7-9p7-9p7-|-----7----7----7h8-x-9p7-9p7-9-|
|-----------------x-------------|-------------------------------|
|-7-----------------------------|-------------------------------|


               ~~~~
  e S     +S  +Q    S    S S S T  T T   T E
|-------------------------------------------|
|-------------------------------------------|
|-x-9b11==(9)-(9)r--9b11-9-7---7------------|
|-x--------------------------9---h9-7p------|
|--------------------------------------h9---|
|-------------------------------------------|


  Q  E E    Q  a  S S S    S
|-----------7--------------------|
|----------------10-7------------|
|------9b11----x------9b11-9b9.5-|
|--------------------------------|
|--------------------------------|
|--------------------------------|


      ~                     ~~
  S S Q  S S E E Q    S T T Q.   S S S S S T T S S
|-------------------|--------------------------------|
|-------------------|--------------------------------|
|-7-----------------|------------7-------------------|
|---9----7-9p7------|---7h8s9------9-7-9-7-----------|
|-----9-------------|----------------------7h8p7p5---|
|-------------------|--------------------------------|


  a E S S +S  E  S H      S E.    +E  +E  S    S S     S Q
|-----------------------|--------------------------------------|
|-----------------------|--------------------------------------|
|-----------------------|---9b11==(9)r(9)-9b11---7b7.5-9-9b11--|
|-----------------------|--------------------------------------|
|-7s8-------------------|--------------------------------------|
|-----7-7-(7)s2s11------|--------------------------------------|


                           ~
  |------3------|                  |-3-|  |-----3------|
  S S    T     +T  T T T T E  E  E S S S +E  a    +E  +E
|----------------------------(0)---------------------------|
|-7--------------------------------------------------------|
|---9b11-9pb11r(9)p7---7-----------------------------------|
|--------------------9---9p7-------7h8s9-(9)-7b9==(7)r(7)--|
|----------------------------------------------------------|
|----------------------------------------------------------|


   ~~~
               |-3--|      |--3---|
  +Q   S S S S S  S S S S  S    S S  a  S  S
|---------------------------------7-------10-|
|-------------------------------7---10s12----|
|--------------------------9b11--------------|
|-(7)--9-7--------------x/-------------------|
|----------9-8-7--------x/-------------------|
|----------------10p7------------------------|


              |--3---|
   E      a  +S   S  S E  E     E    E S  E.
|-12b14==12r(12)p10------12b14-10b12-----10b12-|
|-------------------12-------------------------|
|----------------------------------------------|
|----------------------------------------------|
|----------------------------------------------|
|----------------------------------------------|


         ~~~~~~~                                              ~~
                                       |---3---|
   S  E  S  +E  e  E     E  E  E       E      +S   E S  E.    E E S  E.
|-10----10-(10)-x-12b14-12-10-12b14-|-12b14==(12)r-x---12b14-10-----10b12-|
|----12-----------------------------|--------------x----------------------|
|-----------------------------------|--------------x----------------------|
|-----------------------------------|-------------------------------------|
|-----------------------------------|-------------------------------------|
|-----------------------------------|-------------------------------------|


           ~~~~~~~
   S  S S  S  +E   E   S       S   E  S  E.
|-10--7---10-(10)-----12pb14r(12)-12-10-12b14--|
|-------7--------------------------------------|
|-(0)-------------(0)---------(0)--------------|
|----------------------------------------------|
|----------------------------------------------|
|----------------------------------------------|


   ~~~~~
                                                      |3|
   E.   S S  E.    E      +E    S  S  S  S    E     E E S e S  E.     +E.  +T   +T
|-10b11-----10b12-10b12==(10)r------(7)---|-10b12-10s7---7---12b14==(12)-(12)r(12)-|
|---------------------------------/6--7--7-|------------7---------------------------|
|------------------------------------------|----------------------------------------|
|------------------------------------------|----------------------------------------|
|------------------------------------------|----------------------------------------|
|------------------------------------------|----------------------------------------|


                                 ~~
                        |--3--|
   S  S  S  S  S     S  S  S  S  E  E  S  E     +S
|-10----10-12-12b14-12-10----10-----------------------|
|----12-------------------12----12-10----------------|
|----------------------------------------/9b11==(9)r--|
|-----------------------------------------------------|
|-----------------------------------------------------|
|-----------------------------------------------------|


  |-3--|           |-----5-----|                         |-3-| |-3--|
  S S  S T  T T T  S S S     S S S    T T  T T  T T     +E   S S  S S
|---7------10-7------7-----------------------------------------7------|
|-7---10-7------7-10--------10p7-----------------------------7---10-7-|
|----------------------9b11------9b11-9p7---------9b11==(9)r----------|
|-----------------------------------------h9-7p-----------------------|
|---------------------------------------------------------------------|
|---------------------------------------------------------------------|


           |-3-| |---3---|
  S    T T S S S S S    +S   E e e e e
|---------------------------------------|
|----------------7-------------x-x-x-x--|
|-9b11-9p7---7-9---7b9==(7)r---x-x-x-x--|
|----------9-------------------x-x-x-x--|
|---------------------------------------|
|---------------------------------------|


                                                      |3| |3|
  S S  S T T +Q   +E  a S S +E   S S   S  E      +S   E S E S  e  a      +Q.
|-------------------------7-(7)------|-----------------------------------------|
|-x-----------------------------10-7-|---------------------------10-----(10)---|
|-x---------------------7------------|-7--------------------------9b11===(9)r==|
|-x------7h9-(9)--(9)-x--------------|----------------9------------------------|
|------------------------------------|------------------9s7p5------------------|
|---7h10-----------------------------|---10b11==(10)r---------h7---------------|


             |---3---|
    a       +S   +S  S  T T T T e e S S S    S S S S    S
|-----------------------------------------------------------|
|-(10)-----(10)-(10)------------x-x-7-9-9b10-9-7-9-9b10-9---|
|--(9)b11===(9)r=(9)p7----------x-x-7-9-9b11-9-7-9-9b11-9---|
|----------------------h9-7h9p7-x-x-------------------------|
|-----------------------------------------------------------|
|-----------------------------------------------------------|


                              |3-|
  S   S S    S E   E E E     +S  e S S
|--------------------------------------|
|-7---9-9b10-9-7-------9pb11r(9)---7---|
|-7b8-9-9b11-9-7b8-----9pb11r(9)p7-7---|
|------------------------------------9-|
|--------------------------------------|
|--------------------------------------|


  E E E E     +E  S S S    S S   S   S    S E   e e S S E     +S   S E
|----------------------------------|------------------------------------|
|-7-----9pb12r(9)-7-9-9b10-9-7---9-|-9b10-9-7-----------9pb12r(9)-------|
|-7---------------7-9-9b11-9-7b8-9-|-9b11-9-7b8-x-x---x-9pb11r(9)-h7----|
|----------------------------------|------------x-x-x-x--------------9--|
|----------------------------------|------------------------------------|
|----------------------------------|------------------------------------|


  ~                                      ~
  E E E E    e S S S    S S   S   S    S E E e Q  S  E.
|-------------------------------|--------------------------|
|-7---x-9b12p7-7-9-9b10-9-7---9-|-9b10-9-7---x------10b12==|
|-7---x-9b12-----9-9b11-9-7b8-9-|-9b11-9-7---x-------------|
|-----x-----------------------9-|--------------------------|
|-------------------------------|--------------------------|
|-------------------------------|--------------------------|


                                                     |-3--|
   +E    e      s  s  S  S      e      S      S  +E  S S  S
|----------------------------------------------------7------|
|-(10)r-10b12==10-10r---10pb11-10pb12-10pb11-10-(10)---7-10-|
|-----------------------------------------------------------|
|-----------------------------------------------------------|
|-----------------------------------------------------------|
|-----------------------------------------------------------|


                                                        TP
  |--3---| |-3-|        |--3---|   |3-|
  S S    S S S S a     +S  +S  S E E  S T T T T T T T T E
|----------------------------------------------------------|
|-7--------------------------------------------------------|
|---9b11-9-7---7-9b11==(9)r(9)p7---------------------------|
|------------9---------------------------------------------|
|------------------------------------/x-x-x-x-x-x-x-x-x-x-|
|------------------------------------/x-x-x-x-x-x-x-x-x-x-|


               ~~~~~~~~
                           |--3---|
  E E S S     +E  +E   S S E E    E
|----------------------------------------|
|----------------------7-----------------|
|-------9b11==(9)-(9)r---9---9b11-9b11===|
|-x-x------------------------------------|
|-x-x------------------------------------|
|-x-x------------------------------------|


                    |---3----|
  +E   S    S e     E     a +S  E.    +S   E E
|-------------------------------------------------|
|-------------------------------------------------|
|-(9)r-9b11-9-7b7.5-9b11==9r(9)-7b11==(7)r---7b9==|
|-------------------------------------------------|
|-------------------------------------------------|
|-------------------------------------------------|


   |-3-|                               |-3-|        |--------6--------|
  +E  +S     +E   E S     +S      +E  +E  +S  a    +S  +S     +S  +S  E
|------------------------------------------------------------------------|
|------------------------------------------------------------------------|
|-(7)r(7)b9==(7)r---7pb10r(7)b11==(7)-(7)r(7)-7b9==(7)r(7)b9==(7)r(7)----|
|---------------------------------------------------------------------9--|
|------------------------------------------------------------------------|
|------------------------------------------------------------------------|


                                 ~~~~~~~~
  |---3---| |---5----|               |-3--|
  E   E S S S  S S S S +S  S +T  S.  S  S S e
|---------------------------------------------|
|---------------------------------------------|
|---------------------------------------------|
|-7b9-7------------7h9-(9)-7-(7)-9--(9)p7-9-x-|
|-------9-8-7-------------------------------7-|
|-------------10-7----------------------------|


                  ~~~~~~                   ~~~~
                         |3| |----3----|
  e  S      +S    Q      E S S     +S  S S E    +S
|-----------------------------------------------------|
|---10b11==(10)r-10pb12--7----------------------------|
|-x------------------------9-9pb11r(9)-7-9-7b9==(7)r--|
|-x---------------------------------------------------|
|-----------------------------------------------------|
|-----------------------------------------------------|


     ~~~~~                                                                ~~~~~~~~~~~~~~~~
  E  Q     S S  S S  E      +E    E        +S    E.    E.    S      +E    E      +S    E.
|----------7---10-7-10b12==(10)r-10b12==|=(10)r-10b12-10b12-10b12==(10)r-10b12==(10)r-10--|
|---10b12--7-7----7---------------------|-------------------------------------------------|
|---------------------------------------|-------------------------------------------------|
|---------------------------------------|-------------------------------------------------|
|---------------------------------------|-------------------------------------------------|
|---------------------------------------|-------------------------------------------------|


   E.    S      +E    E      +S    E.     S   E.
|-10b12-10b12==(10)r-10b12==(10)r-10b12==10r-10pb11-|
|---------------------------------------------------|
|---------------------------------------------------|
|---------------------------------------------------|
|---------------------------------------------------|
|---------------------------------------------------|


   S       a  +E  S S  e  S      +S    S      +E    Q
|-10pb12==10r(10)---7-10-10b11==(10)r-10b12==(10)r-10b12--|
|---------------------------------------------------------|
|---------------------------------------------------------|
|---------------------------------------------------------|
|---------------------------------------------------------|
|---------------------------------------------------------|


                                                                ~~~
   S     S S S  S    T  a  T  T T T T a  T T a     +S  +T  T S  E  S    S
|-10b12-10-7---------7-----------------------------------------------------|
|------------7-10b12---10-h7-10p7-----7-10p7----------------------------7--|
|---------------------------------9p7--------9b11==(9)r(9)p7---(7)-9b11----|
|--------------------------------------------------------------------------|
|------------------------------------------------------------9-------------|
|--------------------------------------------------------------------------|


                        |---3----|       |-3--| |--3---|        |3|
  S   E.     +E        +S   +S   S      +E    S S S  T T S  T T E S
|-7--10b12--(10)pb13==(10)r(10)-10b12==(10)r-10-7---10p7------7-----|
|---(10)b12-(10)pb13==(10)r(10)-------------------7----7-7-10-----7-|
|---------------------------------------------------------------9---|
|-------------------------------------------------------------------|
|-------------------------------------------------------------------|
|-------------------------------------------------------------------|


  |-3-| |--3--|
  S S S E    +S   e a    +E   a     +E  +S     +S  +E    E
|-7-9-7------------------------------------------------------|
|-----7------------------------------------------------------|
|-------7b8==(7)r-x-7b9==(7)r(7)b9==(7)r(7)b9==(7)r(7)b9-7b9-|
|-----------------x------------------------------------------|
|-----------------x------------------------------------------|
|------------------------------------------------------------|


        ~                                    ~~~~~~~~~
  |-3-|
  E   S E  e  E Q  Q        +S  +E      +S  +H.
|-------------------------|--------------------------|
|-------------------------|--------------------------|
|-7b9------7-------9b11===|=(9)r(9)b11==(9)-(9)r=====|
|-----9-9-(0)-------------|--------------------------|
|-------------------------|--------------------------|
|-------------------------|--------------------------|


 ~~~~~~~~~~~~~~~
  +Q.   +E      +S   a     +Q.   +S    S    +E  +S     +S  +S     +Q   +Q.
|------------------------------------|----------------------------------------|
|------------------------------------|----------------------------------------|
|-(9)---(9)b11==(9)r-9b11==(9)r==(9)-|-7b9==(7)r(7)b9==(7)r(7)b9==(7)r=(7)----|
|------------------------------------|----------------------------------------|
|------------------------------------|----------------------------------------|
|------------------------------------|----------------------------------------|


  S S     +S  +S  S S     +S  +S  S S S S S S S S
|-------------------------------------------------|
|-------------------------------------------------|
|-7h9b11==(9)r(9)p7h9b11==(9)r(9)p7h9p7h9p7s6h7p6-|
|-------------------------------------------------|
|-------------------------------------------------|
|-------------------------------------------------|


                   |3|
  a Q  T T S S S a E S T T S E S T T
|-------------------------------------|
|-------------------------------------|
|-8s9p=7h9p7s6h7h8s9p7h9p7s6s7h9p7h9p=|
|-------------------------------------|
|-------------------------------------|
|-------------------------------------|


                              |-3-|
   E E +S. T  E  +E   T  S T  S S S T T T T
|-(0)---------------------------------------|
|-------------------------------------------|
|--7s9-(9)-9s11-(11)h14p11s9h11p9s7h9p7s6h7p|
|-------------------------------------------|
|-------------------------------------------|
|-------------------------------------------|


                   ~~~~~~~
  S a E X X X  X S E. +E  S S S S S a  S
|------------------------------------------|
|------------------------------------------|
|-6h7s9p7h9p7-------------------7-9-9s11s==|
|-------------h9-7s6--(6)-6h7s9------------|
|------------------------------------------|
|------------------------------------------|


                     ~~
                                                |3|
  S S S S S S S a  S Q.    S  S   S     +T  +T  E S E S S E a  E  +E    S    S
|-------------------------------|----------------------------------------------|
|-------------------------------|-9b10==(9)r(9)p7-7-7----------------------/10-|
|-9-7h9-7------------9----(0)-9-|-9b11==(9)r(9)p7-7-7-8-8s6-7s=9--(9)-(0)-/11-|
|-------------7h9s11------------|---------------------9-9s7-9s11-(11)-(0)-----|
|---------7-9-------------------|----------------------------------------------|
|-------------------------------|----------------------------------------------|


                                   ~
   S  S  S  S  E  S  a S +S  S S S E S S
|--------------------------------------------|
|-----8----10----10------------7-------9b10==|
|-(0)-9s11----11----11s9-(9)-7-----7-x-9b11==|
|------------------------------7-7-7-x-------|
|--------------------------------------------|
|--------------------------------------------|


   |-3-|
  +S  +E  E S S S S S S  E  +E.  S
|----------------------------------|
|-(9)r(9)-7-7---7-7-7-7------------|
|-(9)r(9)-7-7-0-7-7-7-7---------11s|
|-------------0-7-7-7-7s11-(11)-11s|
|----------------------------------|
|----------------------------------|


  E E S S E S S S S E  E     E  S  S  E.  S  +Q    e   E
|-------------------------|--------------------------------|
|-------------------------|-10-10s14-14--14-(14)----------|
|-9-7---------------------|--------------------------------|
|-9-7-9-8-7-4-6-4------9--|--7--7s11-11--11-(11)----------|
|-----9-8-7-5-7-5---------|------------------------x/------|
|-----------------5s7-(7)-|------------------------x/-21s==|


   |-3--|      |3|
   S  S S E E  E S S a E    +S   S S S S
|----------------------------------------|
|----------------------------------------|
|----------------x-----------------------|
|----------------x---------------------7-|
|----------------x---4s5b7==(5)r-7-8-9---|
|-(7)s3p0h2s5s10-------------------------|


                            |-3-|                |3-|        |--3---|     |3|
   E  E  S  E.  S   S   E  +E   S  E    S  S  E  E  S  +E   +E   E  E  E  E S
|-------------------------------------|------------10-(10)-(10)s14s12s10-------|
|-10s14-14s17--17s(24)s17-(17)-17-17-|-------x/-------------------------10-7--|
|-(7)---------------------------------|-------x/----7--(7)--(7)s11s=9s=7-------|
|--7s11-11s14--14s=19s=14-(14)-14-14-|-x-----x/-------------------------------|
|-------------------------------------|-x-(0)----------------------------------|
|-------------------------------------|----------------------------------------|


         |--3---| |-3-|                    |---5----|
  a     +T  +T  T T T T E S  E.     a     +S  +T  T T E S  E     S
|-------------------------------------------------------------------|
|---------------------------------------------------------10b12--7--|
|-9b11==(9)r(9)p7---7--------9------9b11==(9)r(9)-7-----x-------(7)-|
|-----------------9---9p7---(9)b11-(9)----(9)-(9)---9-7-x-----------|
|-------------------------------------------------------x-----------|
|-------------------------------------------------------------------|


       |-3-|   |-3-|                                                |---3---|
  S    T T T S T T T T  T  E.   a     +S  +T  T T T   S  S  S      +S   +S  S
|-------------------------------------------------------------------------------|
|----------------------------------------------------------10b12==(10)r(10)p7---|
|-9b11-9p7---7-------------9b11-9b11==(9)r(9)p7---------------------------------|
|----------9---9p7------------------------------9p7-----------------------------|
|------------------9p7------------------------------h(8)------------------------|
|----------------------(7)------------------------------------------------------|


                |3-|                          |-3-|
  S    S T T S +E  S     +E   a     +S  +T  T S S S S  a      +S   +S  S
|------------------------------------------------------------------------|
|-----------------------------------------------------10b12==(10)r(10)-7-|
|-9b11-9-7---------9b11==(9)r-9b11==(9)r(9)p7----------------------------|
|----------9p7-(7)----------------------------9p7------------------------|
|-------------------------------------------------x----------------------|
|------------------------------------------------------------------------|


  a     +S  T T T T  S      +S    +T  T a     +S  +T  T T T S     +T  +T  T T T T T T +E
|------------------------------------------------------------------------------------------|
|-------------------10b12==(10)r=(10)p7----------------------------------------------------|
|-9b11==(9)r9p7-----10b11==(10)r--------9b11==(9)r(9)p7-----9b11==(9)r(9)p7---7------------|
|---------------9p7-------------------------------------9p7-----------------9---9p7--------|
|-----------------------------------------------------------------------------------9-(9)--|
|------------------------------------------------------------------------------------------|


  W             +W
|-------------|---------------|
|-------------|---------------|
|-------------|---------------|
|-7tr9--------|-(7tr9)--------|
|-------------|---------------|
|-------------|---------------|


                                                    TP
   |3-|                   |3| |3|   |3| |3|
  +E  S S S S S S S S S E E S E S   E S E S E S S E Q.
|---------------------------------|----------------------|
|-------x-x-x-x---x-x-x-----------|-----------------7----|
|-------x-x-x-x---x-x-x-----x-x---|---x---x-x-x-----6----|
|-(7)---x-x-x-x---x-x-x-x-------x-|---------x------------|
|-----------------------x-x-------|-x---x----------------|
|-----7---------------------------|-----x----------------|


        |3|          |-3-|
  E E E E S e E Q    S S S E Q  H      W          W
|------------------|-----------------|----------|------||
|------------------|-----------------|----------|------||
|-x-------x--------|-----x-----------|----------|------||
|-x-------x-x------|---x-------------|----------|------||
|-x---------x------|-x---------------|----------|------||
|------------------|-----------------|----------|------||


  N.C.(B7)
                              ~~~~
  W             S S E E  E  E Q.
|-------------|----------------------|
|-------------|----------------------|
|-------------|---------------9b11---|
|-7tr9--------|-x-x-----(x)----------|
|-------------|----------------------|
|-------------|----------------------|


                                   |-3-|           |--3---|
  S    S S S S  S      +E   a     +E  +S  e a     +S  +S  S    +e
|-------------------------------------------------------------------|
|-------------------------------------------------------------------|
|-9b11-9-7-9-9s10b12==(10)r-9b11==(9)r(9)p7-9b11==(9)r(9)p7b9==(7)r-|
|-------------------------------------------------------------------|
|-------------------------------------------------------------------|
|-------------------------------------------------------------------|


  E E    +e  E e e E.     +S     W
|------------------------------|-------------|
|--------------x-x-------------|-------------|
|---7pb9r(7)---x-x-------------|-------------|
|--------------x-x-7b7.5==(7)r-|-7tr9--------|
|------------------------------|-------------|
|------------------------------|-------------|


                                                 ~~     ~~
   e E Q  S  E.     S S     +E    S E +S  S E. S E. S   E.
|-------------------------------|--------------------------|
|-------------------7-----------|--------------------------|
|-----------(9)b11p---9b11==(9)-|-9-9r(9)-7-9--7-7--7b9----|
|-hx----------------------------|-----------------------9--|
|-------------------------------|--------------------------|
|-------------------------------|--------------------------|


            |3-|
  S   S S S E  S  E   E   E  Q
|-------------------------------|
|------------------------(7)----|
|--------------------(7)--------|
|-7b8-9-7-----------------------|
|---------8p7-------------------|
|-------------10p(7)------------|


                          ~~~~~~~~~                        ~~~~~~
  |----3-----|                       |-3-|                    |3-|         |3| |3|
  S      S   S    S      +S   +e   E S S S +S  S S S S S   E +E  S e E E E E S E S
|------------7-----------------------7-------------------|-------------------------|
|--------7-------10b12==(10)-(10)r-----7-------x---------|-------------x-x---------|
|-9b11==(9)-(9)r-------------------------7-(7)-----------|-7-(7)-------x-x-7-9p7-9-|
|----------------------------------------------------7h9-|---------7---x---7-9p7-9-|
|--------------------------------------------------9-----|-------9p0---------------|
|--------------------------------------------------------|-------------------------|


  |3| |3| |3| |3|   |3|  |3-| |3-|
  E S E S E S E S E E S  E  S E  S
|----------------------------------|
|----------------------------------|
|-7-9-----7---7----------7h=9p7----|
|-7-9-------9-7-----7h9-(7)h9p7----|
|-----7-9-------9-7-7h9---------h9-|
|----------------------------------|


        |3-|                  |3-|   |3-|
  E S S e  S     +T  +T  T  T E  S   E  S      +T  +T  T T T T T  T
|-------------------------------------------------------------------|
|--------------------------------x-------------------------7--------|
|-----5sx--9b11==(9)r(9)p7-------x-----9b9.5==(9)r(9)p7---7--------|
|--------------------------h9-7p-x----------------------9---9p7----|
|---------(0)-----------------------(0)--------------------------h9-|
|-------------------------------------------------------------------|


                PM           PM
                                    |-3-|
  T T T  T    e Q     +E     Q.     S S S S  S  Q  E  T      +S   +T  e E
|---------------------------------|---------------------------------------|
|---------------------------------|------------------10b12==(10)r(10)p7---|
|---------------------------------|---------------------------------------|
|-7h8h9---------7tr9--(7tr9)-7----|-x-x-x---------------------------------|
|-7h8h9---------------------------|---------------------------------------|
|-------10b11p7-------------------|---------(7)---------------------------|


                            ~~~~~~~~~~
                                                |3-|
  E  a      +Q    +E       +Q    +S    S a     +E  S
|------------------------------------------------------|
|---10-----(10)--(10)-----(10)--(10)--10---------------|
|----9b11===(9)r==(9)b11===(9)---(9)r----9pb11r(9)-9---|
|------------------------------------------------------|
|------------------------------------------------------|
|------------------------------------------------------|


                           |--3---|    |---3---|                    |-----3-----|
  S S e    S S E S S E S S S   S  S    S S     S    e Q  Q  S S     S     S     S
|------------------------------------|--------------------------------------------|
|--------------------------7------9--|---9b9.5----------------9pb10-------9pb10---|
|-7-9-9b11---x---x-------7-7b8-7-(9)-|-9-9b9.5-9b11p7---------------9pb10-------9-|
|------------------------------------|--------------------------------------------|
|------------------x-----------------|--------------------------------------------|
|------------------------------------|--------------------------------------------|


          ~
  |-3--|                |3| |--3---|
  S S  S  E e E E S  S  E S S S    S
|--------------------------------------|
|-----------x---------------7------7---|
|-0-9-(0)-7-x-------(x)---7---7pb8-----|
|--------------------------------------|
|--------------------------------------|
|--------------------------------------|


  |-3-|                 |--3---|  |---3---|
  S S S     e     Q  Q  E      S  S     S S
|-------------------------------------------|
|---9-------9b9.5-------9pb10==9r-------9---|
|-9---9pb10-----------------------9pb10---9-|
|-------------------------------------------|
|-------------------------------------------|
|-------------------------------------------|


            ~~~~~~
  |-3-| |--3--|             |-3--|  |-3-| |-3-|     |--3--|
  S S S S S T T s S T T T T S S  S  S S S S S S     S a S S
|-----------------------------------------------------------|
|-9---9---7---7---x---------------------7---7-------7-----9-|
|---9---7---7---7-x---x-x-x-x-x-(x)-x-7---7---7b7.5---7h9---|
|-----------------------------------------------------------|
|-----------------------------------------------------------|
|-----------------------------------------------------------|


  |----3-----| |-3-| |--3---| |3|       |--3---|   |---3----|     |-3--|
  S    S     S S S S S S    S E S +S  S E     +S   S     S  S     S  S S
|------------------------------------------------------------------------|
|------9pb10---9---x-------------------------------9pb10----9pb10----9-9-|
|-9b10-------9---7---x-9b10-9---7-(7)---9b10==(9)-(9)----9-(9)----9r-9-9-|
|------------------------------------------------------------------------|
|------------------------------------------------------------------------|
|------------------------------------------------------------------------|


        ~~~~~~~~                    ~~~~~~
                |3|         |-3-| |-3-| |3|
  T     T T T E E S T T T T S S S S S S E S S S
|-------------------------------------------------|
|-9pb10-9-9-9-7-------------x-x---x-7-7-7-7-------|
|-9pb10-9-9-9-7-x-x-x-x-x-x-----x---7-7-7---9-9---|
|-------------------------------------------------|
|-------------------------------------------------|
|-------------------------------------------------|


  |----3-----|  |-3-|       |-3-| |-3-|    |------3------|
  S      S T T  S S S S S E S S S S S S    S      S      S T T T  T
|--------------------------------------------------------------------|
|-9pb10====9----9-9p7---x---x-x-x-9-9------9pb10=========9---9----9r-|
|-9pb10==9---9r-9-9p7---x---x-x-x-9-9-9b10--------9pb10====9---9r----|
|--------------------------------------------------------------------|
|--------------------------------------------------------------------|
|--------------------------------------------------------------------|


                            ~~~~~~
  |--3---|    |3|
  S    S S    S E   e E Q   Q
|----------------------------------|
|-9b10-9-9b10-9------------10b12===|
|-9b10-9-9b10-9-7b8-x------10b11===|
|----------------------------------|
|----------------------------------|
|----------------------------------|


                                                     ~~~~~~~~~~~~~~
    |-3--|
   +E   +S  E Q  E e Q    Q  E e E E  E.     +S      Q       +E    E H
|------------------x----|------x------------------|-----------------------|
|-(10)r(10)-------------|------x---x-10b12==(10)r-|-10b12===(10)r--------|
|-(10)r(10)p7-----------|----------x--------------|-----------------------|
|-----------------------|-------------------------|-----------------------|
|-----------------------|-------------------------|-----------------------|
|-----------------------|-------------------------|-----------------------|


     ~~
        |3-| |3|
   S E. E  S E S S  E.  +E       +E
|-10-7--7-----------------------------|
|---------10-7-----10--(10)b11==(10)r-|
|--------------9-7--------------------|
|-------------------------------------|
|-------------------------------------|
|-------------------------------------|


   ~~~~~~~~~~~~
            |----3-----|
   Q       +S   a  +S  S E E   S  S  Q    E E Q  Q  S  E      +S
|---------------------------------------|--------------------------|
|-10b12===(10)-10r(10)p7-----/10--------|-------------10b11==(10)r-|
|----------------------------/10-10----|-xsx----------------------|
|--------------------------------10----|-xsx----------------------|
|---------------------------------------|-xsx----------------------|
|---------------------------------------|--------------------------|


   ~~~~~~
                       |-3-| |-3-|    |-3-|
   Q.      S  S S S    S S S S S S    S S S
|-------------------------------------------|
|-10pb12---7-10-7---------------------------|
|-----------------9b11-9-7---7-9-9b11-7-----|
|--------------------------9------------9p7-|
|-------------------------------------------|
|-------------------------------------------|


    |3| |-3-|                 |---5---|
  e E S S S S T T T T T T T T T T T T T T T T T T T   S
|----------------------------------------------------------|
|----------------------------------------------------------|
|-x---------------------------------------------x-x/-------|
|-----7-7-9-7-9-7-9-7-9-7-9-7-9p7-9p7-9-7-9-7-9-x----------|
|----------------------------------------------------16s===|
|----------------------------------------------------------|


  |3-|
  E  S T T T T T T T T T T S T T T T T T T T T T T T T T T T
|------------------------------------------------------------|
|------------------------------------------------------------|
|------------------------------------------------------------|
|------------------------------------------------------------|
|-9-x-x-x-x-x-x-x-----x-x---x-x-x-x-x-x-x-x-x-x-x-x-x-x-x-x-|
|------------------x-x---------------------------------------|


   |---3---|   |---3---|   |-3--|                   |----6----| |3|
   S   S   S   S   S   S   S  S S T T T T E    E    T T T T T T S E
|--------------------------------------------------------------------|
|---------------------------------------------------------------x----|
|---------------------------------------------------------------x-x/-|
|-(x)-(x)-(x)-(x)-(x)-(x)-(x)-9p7-9p7h9p7-7tr9-7tr9---------------x/-|
|---------------------------------------------------9p7-9p7-9p7------|
|--------------------------------------------------------------------|


                        ~~~~~~~~~~~~
  |---3---|   |-3--|            |-3-|  |-3-| |-3-| |-3-|
  S   S   S   S  S S E  E      +E   S  S S S S S S S S S
|-----------------------------------7--------------------|
|-7-(x)-(x)-(x)-------10b12==(10)r---10-7---7-----------|
|-7-(x)-(x)-(x)---------------------------9-7---7-9p7h9-|
|----------------------------------------------9---------|
|----------------x-x-------------------------------------|
|--------------------------------------------------------|


            |3|        |3-|  |-3--|  |3-| |-3-|
   T  T T T S E E S S  S  E  S  S S +E  S S S S
|------------------------------------------------|
|---------------------h7----h7-------------------|
|----------------------7----h7----7-(7)----------|
|--9--7h9p7-------7------h9----h9-7-(7)-7h9-8p7--|
|-(0)-------x-x---7h9----------------------------|
|------------------------------------------------|


    |----3----| |---5---|         |--3--|       |---3---|
    S      S  S T T T T T  E  e   e e   e S   S S     S S
|---------------------------------------------------------|
|---------------------------------------------------------|
|---------------------------------------------------------|
|-------------7h9p7h9p7h9p(7)-7b8-9-7b8-9-7b8-9-7b7.5-9-7-|
|---------------------------------------------------------|
|-h10b10.5-7p---------------------------------------------|


          |----6----|
  S S S S S S S S S S T T T T T T T T T T T T T T T T
|-----------------------------------------------------|
|-----------------------------------------------------|
|-----------------------------------------------------|
|-9-7-9-7-9-7-9-7-9-7-9-7-9-7-9-7-9-7-9-7-9-7-9-7-9-7-|
|-----------------------------------------------------|
|-----------------------------------------------------|


                                 ~~                         ~~~
                                                    |3|          |3| |-3-| |3|
  T T T T  T T T T T  S T  S T T E. T T T S T S S   E S E E Q    E S E   S S E
|-------------------------------------------------|----------------------------|
|-------------------------------------------------|----------------------------|
|-------------------------------------------------|----------------------------|
|-9-7----------9-7---------------9--7h9p7-------7-|----------------------------|
|-----8p7----------9---------8s9----------9-7h9---|-7s5-----7b9----7-5b6-7-5---|
|---------10p7-------10-7h10----------------------|-----x--------------------5-|


        |3|      |3| |-3-|
  +Q.   E S E E  E S S S S
|--------------------------|
|-----------x----x-x-x-x-x-|
|-----------x-x-x-x-x-x-x-|
|-------------x-----------|
|-------------x-----------|
|-(5)s==2sx----------------|


                                        |3| |---5---|
  T T T T T T S Q  Q  E S S    H    S S E S S S S S S
|----------------------------|-------------------------*|
|-x-x-x-x-x-x-x-----------x-|--------xsx--------------*|
|-x-x-x-x-x-x-x-----------x-|--------xsx---x-x-x-x----*|
|----------------------------|--------xsx---x-x-x-x----*|
|----------------------------|------------x------------*|
|----------------------------|-------------------------*|


Duration Legend
---------------
W - whole; H - half; Q - quarter; E - 8th; S - 16th; T - 32nd; X - 64th; a - acciaccatura
+ - note tied to previous; . - note dotted; .. - note double dotted
Uncapitalized letters represent notes that are staccato (1/2 duration)
Irregular groupings are notated above the duration line
Duration letters will always appear directly above the note/fret number it represents the
duration for.  Duration letters with no fret number below them represent rests.  Multi-
bar rests are notated in the form Wxn, where n is the number of bars to rest for.  Low
melody durations appear below the staff

Tablature Legend
----------------
 h   - hammer-on
 p   - pull-off
 b   - bend
 pb  - pre-bend
 r   - bend release (if no number after the r, then release immediately)
 /  - slide into or out of (from/to "nowhere")
 s   - legato slide
 S   - shift slide
  - natural harmonic
[n]  - artificial harmonic
n(n) - tapped harmonic
 ~   - vibrato
 tr  - trill
 T   - tap
 TP  - trem. picking
 PM  - palm muting
n/  - tremolo bar dip; n = amount to dip
 n  - tremolo bar down
 n/  - tremolo bar up
/n  - tremolo bar inverted dip
 =   - hold bend; also acts as connecting device for hammers/pulls
   - volume swell (louder/softer)
 x   - on rhythm slash represents muted slash
 o   - on rhythm slash represents single note slash

Misc Legend
-----------
 |  - bar
||  - double bar
||o - repeat start
o|| - repeat end
*|  - double bar (ending)
 :  - bar (freetime)
 $  - Segno
 &  - Coda
Tempo markers -  = BPM(8/16=s8/s16), where s8 = swing 8ths, s16 = swing 16ths
comments
print report bad tab
3 comments total.
0 reply
hendrixman91 wrote on January 1 2007, 07:38 pm

great song great tab
another example of jimi pouring his soul into everything he does

0 reply
armstrong26491 wrote on August 27 2007, 05:36 pm

tht tab is f***ing sick man!!!!
NICE WORK

0 reply
Neil R. Rose wrote on November 4 2009, 05:33 pm

Yea this is awesome. Good stuff

I want to post or [tab]
guest
You may want to rate the tab now too:
select rating
Please do not post tabs as comments. Select "correction" instead!