Oops, an error
Loading. Please wait.

Burning Of The Midnight Lamp Tab

ver3
ver3

Whole song

More versions @911Tabs.com
30,485 views 102 this week
2 commentsread comments
1 2 3 4 5
excellent!
x 8
Autoscroll
+/-
esc
set tempo
stop
Contributor
WARNING: You are trying to view
                                    content from Ultimate-Guitar.com
                                    in an unauthorized application,
                                    which is prohibited.

                                    Please use an official Ultimate
                                    Guitar Tabs application for iPhone,
                                    iPad or Android to access legitimate
                                    chords, guitar, bass, and drum tabs
                                    from Ultimate-Guitar.com database.

                                    Type "ultimate guitar tabs" in Apple
                                    App Store's or Android Market's
                                    search to find the application.
i'm fixing a few versions of tabs to make them correct. there are two really good tabs
the intro and part of the verse and i'll be including them in this tab because i see them
perfectly correct. i'll give them credit to what they tabbed to be fair.
this would be the first time the whole song is tabbed on the site, there's just portions 
alot of things missing. i'm 99% sure about this tab.


-----------------------------------------------------------------------------|
                                 Burning of the Midnight Lamp - Jimi Henrix--|
Tabbed by: Alex Billy/James Holland on the Intro/Bella Godiva music portion of the verse
Email:alexb024@aim.com

Tuning: Standard

Intro play two times:
|-------------------|---------------||--------------------------------|
|-------------------|---------------||--------------------------------|
|-------------------|---------------||--------------------------------|
|-----3-2---0-0-----|---3-2---0-2---||-----3-2---0-0---0-2w--2-3-2-0-2|
|---3-----3-----3-3-|-------3-----3-||---1-----3-----3----------------|
|-3-----------------|-1-------------||-1------------------------------|

Verse:
     F                              Dm
	The morning is dead______     and the day is to


      B                                         E
	There noth-ing left here to greet me___   but the velvet moon


      Cmaj7                     Gmaj7
	All my lone-li-ness__    I have felt___  to - day__

      D7				F			    G
	Its little more then enough    to make a man throw himself away

And I continue to burn the midnight lamp, alone.
  [ use wah-wah until you get this point]
                                      |
e|3---------3--5-6-7-----------------7------------7-7-7-7-6--5--/3--|
B|3---------3-------------------------------------------------------|
G|4---------4--5-6-7-----------------7------------7-7-7-7-6--5--/4--|
D|------------------------------------------------------------------|
A|------------------------------------------------------------------| x2
E|------------------------------------------------------------------|

repeat intro once
repeat verse
Now the smiling portrait of you is still hanging on my frowning wall
It really doesn't bother me too much at all
It's just the ever falling dust that makes it so hard for me to see
that forgotten earring laying on the floor facing coldly towards the door

And I continue to burn the midnight lamp alone

                              |wah-wah goes on there|
------------------------------------------|
-13-13-13-13-11-13p11---------------------|
-----------------------2---2-2w-----------|
-------------------------4----------------|
------------------------------------------|
------------------------------------------|


repeat intro
repeat verse
So here I sit to face that same old fireplace
getting ready for the same old explosion going through my mind
soon enough time will tell about the circus and the wishing well
and someone who will buy and sell for me
someone who will toll my bell

And I continue to burn the midnight lamp alone


thanks, i tried to do the best i can.

| /  slide up
| \  slide down
| h  hammer-on
| p  pull-off
| ~  vibrato
| +  harmonic
| x  Mute note
| w  Whammy
============================================================================
2 comments total.
0 reply
nolanwalker93 wrote on October 5 2013, 05:57 pm

The distortion may be obvious to some, but for those just learning, its a wah-wah pedal. I myself also use org phase. Sounds real nice when the two are put together :)

0 reply
CheddyRoosevelt wrote on October 17 2013, 05:29 pm

Looks good to me. Lots of solid version of this out, but this is about as good as it can get; this is the one to bookmark and learn.

Now just find a keyboardist to jam with!

I want to post or [tab]
guest
You may want to rate the tab now too:
select rating
Please do not post tabs as comments. Select "correction" instead!