Oops, an error
Loading. Please wait.

Electric Ladyland Tab

ver1
ver1

Album

Whole song

Interactive

More versions @911Tabs.com
24,153 views 54 this week
4 commentsread comments
1 2 3 4 5
excellent!
x 6
Autoscroll
+/-
esc
set tempo
stop
Contributor
Difficulty
Tuning
intermediate
D# G# C# F# A# D#
Hey! There's an official Ultimate Guitar app which is ideal
for learning songs when you're away from computer. Get the app
WARNING: You are trying to view
                                    content from Ultimate-Guitar.com
                                    in an unauthorized application,
                                    which is prohibited.

                                    Please use an official Ultimate
                                    Guitar Tabs application for iPhone,
                                    iPad or Android to access legitimate
                                    chords, guitar, bass, and drum tabs
                                    from Ultimate-Guitar.com database.

                                    Type "ultimate guitar tabs" in Apple
                                    App Store's or Android Market's
                                    search to find the application.
Jimi Hendrix - Electric Ladyland

Electric Ladyland was one hard tab to make cause there are so many different parts
to it and some of the songs just contain synthesisers.
This is my first ever tab so if it is a bit messy dont worry.
Have fun with this!


Track List:
1. ...And The Gods Made Love
2. Have You Ever Been (To Electric Ladyland)
3. Crosstown Traffic
4. Voodoo Chile
5. Little Miss Strange
6. Long Hot Summer Night
7. Come On (Let the Good Times Roll )
8. Gypsy Eyes
9. Burning Of The Midnight Lamp
10.Rainy Day, Dream Away
11.1983... (A Merman I Should Turn To Be)
12.Moon, Turn the Tides ... Gently Gently Away
13.Still Raining, Still Dreaming
14.House Burning Down
15.All Along The Watchtower
16.Voodoo Child (Slight Return)

1. ...And The gods Made Love

Ok Guys for this song u need a synthesiser so you wont need your guitar at all. If
you want you can put some of your own guitar riffs and licks over the top of the
recording track


2. Have You Ever Been (To Electric Ladyland

Gtr I (E A D G B E) - 'Untitled'
Gtr II (E A D G B E) - 'Untitled'

 Intro / Verse
  Moderately Slow Q=72
                           A           N.C.(G#)
 4/4
  Gtr I
  W          Q  Q  Q  Q    E. S S E.    T   T S E  E  E
|----------|-------------|-5----5-----------------------|
|----------|----x--x--x--|-5--5-5-------9h=12p9---------|
|----------|----x--x--x--|-6--6-6---------------9-------|
|----------|----x--x--x--|-7--7-7-----------------------|
|----------|-------------|-7----7-x----------------9s11-|
|----------|-------------|-5----5-----------------------|
|
| Gtr II
| W          W             Q    E    E +Q          Q
|----------|-------------|------------------------12----|
|----------|-------------|------------------------------|
|----------|-------------|------------------------------|
|----------|-------------|------------------------------|
|----------|-------------|-----------0-(0)--------------|
|----------|-------------|------------------------------|


  N.C.(G#)                              N.C.(D)
   |--3--|                                          |-3--|
   S  S  S  S  S  S  S  S  S Q  S S E    E  S  S E. S  S S  E E S  S S
|--0-------------------------0--5s7s5-|--------------------------------|
|-12h14p12----------------------3s5s3-|-------------9h12p9------0h10p0-|
|----------11----------11-------------|----11-------9------------------|
|-------------14-11----11h13----------|----12-11-x---------11----------|
|----------------11-14----------------|--------------------------------|
|-------------------------------------|-10-----------------------------|


  N.C.(B)                                  A/C#
  E   E   S S S  S E  T E   T S   E     E. S S S.    S  S   T  E. Q
|-------------------------------------|----5-5-----------------------|
|-0-----------------------------------|----5-5-------9h12p==9--------|
|---------7h9p7-----------------------|----6-6-------9------------4--|
|----------------9------7---------7---|-x------x--------------11--6--|
|-----0------------7s=9-----7h9-------|------------------------------|
|-------------------------------------|---------------------------4--|
|
| Gtr II
| S S S S S S S  S E  E   S   T T S S   Q    E     E      H
|-------------------------------------|-----------12-----------------|
|--------------------10---------------|------------------------------|
|------------------9------7-----------|------------------------------|
|---------7s9-9s11------------7h9p7---|------------------------------|
|---5-7s9---------------------------9-|------7-----------------------|
|-7-----------------------------------|------------------------------|


  B5/Ab        D5/B          D5 D/A
  S S E Q  E   S S  S. T E   E. S S E. S     S    S  E   E S
|--------------5s7s=5--7s5-|---------------------------------|
|-7s9s7--------3s5s=3--5s3-|----7-7----9h===12p===9----------|
|-4s6s4-4------4s6s=4------|-7--7-7-x---------------11-------|
|-6s8s6-6------------------|-7--7-7----------------------9-9-|
|--------------------------|-5---------------------------7-7-|
|--------------------------|---------------------------------|
|
|          \1/
|                                      |---3---|
| H        Q       +Q        H         S  S    S  E    Q
|----------0-------(0)-----|---------------------------------|
|--------------------------|-----------9h12p===9-------------|
|--------------------------|---------------------11s===9-----|
|--------------------------|---------------------------------|
|--------------------------|---------------------------------|
|--------------------------|---------------------------------|


  N.C.(B)                                       Csus2/A            Csus2/G
                                                                   \1/
  S S S S  S  E    S  S E   S S  S E     H      Q.   E   +Q   S E. H
|-7h9p7--------------------------------|---------------|------------------|
|--------------------10----------------|--------3------|-----------3------|
|-------7----------7----9-----7--------|--------5----5-|-(5)--5-x--5------|
|-------7----11---------9---7---11s9---|--------5----5-|-(5)--5----5------|
|----------7---------------------------|---------------|------------------|
|--------------------------------------|--------5----5-|-(5)--5-----------|
|
|                                  \1/                             \1/
| S S S S  E     E    E   E   E    E     E H.        E   +H        H
|--------------------------------------|---------------|------------------|
|---------------10---------------------|---------------|------------------|
|--------------------------------------|-5s6---------5-|-(5)-------5------|
|-----7-9s11----------9---7------------|-------------5-|-(5)-------5------|
|-7h9-------------------------7s===9---|---------------|------------------|
|--------------------------------------|---------------|------------------|


  N.C.(A)
  E Q    S E.     E   E S     S
|--------x--------------x-----x-|
|--------x-x------------x-------|
|-----------------7---7---------|
|-----------------7---7---------|
|-------------------------------|
|-5-----------------------------|
|
| Q   E.   S  S S S S E E
|-------------------------------|
|-------------------------------|
|-----5-------5h7p5-----5b7.5---|
|----------7--5h7p5---5---------|
|---------------------5---------|
|-------------------------------|


       C5/A   G5/AD5    D5/A    N.C.(B)
   Q   Q      E   E     E   E   E E E E E S S S E S
|-----------------------------|---------------------|
|-----------------------------|---------------------|
|------5----------7-----7-----|---------------------|
|------5------5---7-----7-----|-----------4---------|
|-------------5---5-----5-----|-2-4-2-0-------------|
|------5------5---------5-----|---------2---0-0-0-2-|
|
| +Q.    E    S S S S   S S E   W
|-------------5---------------|---------------------|
|--------8b10---8-5-----------|---------------------|
|-(5)---------------7b9-7-5---|---------------------|
|---------------------------7-|---------------------|
|-----------------------------|---------------------|
|-----------------------------|---------------------|


  N.C.(G)                             N.C.(E)
      |--3--|                             |--3---|
  E E S S   S S S  E  S S S   S S S   E E S  S   S S S E E  E E
|-----3h5p==3-----------------------|----------------------------|
|-------------3-0-------------------|-----0h10p==0---------10----|
|-----------------------------------|----------------7------7----|
|---5---------------------------5---|--------------9---9-9--9-9--|
|-------------------------3s==2---5-|-7--------------------------|
|-3----------------3--3-3-----------|---0------------------------|
|
| Q   S   S   E   +E  E   E     E     E E S    E     S Q    E E
|-----3h==5p==3---(3)---------------|----------------------------|
|-0---------------------------------|----------------------------|
|-0-----------------------4b6r======|==========7-----7------7----|
|-0-------------------5---------5---|-----9------------9----9-7--|
|-----------------------------------|-----7----------------------|
|-----------------------------------|-0-7------------------------|


  Bm/D F#5/D
          |---3---|
  E     E S  S    S E    S S E   E   S S
|-7-----9-9h10p===9-7--------------------|
|-7-----7-7---------7---10p7-------------|
|-7-----7-7---------7----7---7---9---x-x-|
|------------------------9---9---9---x-x-|
|----------------------------------------|
|----------------------------------------|
|
| S  S  E S     S   S S  S S S S S S E
|----------------------------------------|
|-7h10-10-7h===10---7--------------------|
|------------------------9-7-------------|
|---------------------9------9-7---------|
|--------------------------------9-7-----|
|------------------------------------9---|


  N.C.(B)                 N.C.(G)
                              |-3-|
  E E E E S E S S S S S   E E S S S E    E  E Q
|-----------------------|-----3h5p3-----------3---|
|-----------------------|-----------3---------3---|
|-----------------------|---------------------4---|
|-----------------------|---5---------------5-----|
|-2-4-0-----x-----------|-------------------------|
|-------4-2-0-x---x-2---|-3--------------3--------|
|
| W                       Q   E     S S +E  E E E
|-----------------------|-------------------------|
|-----------------------|-------------------------|
|-----------------------|-4---4-----5p4-(4)---4---|
|-----------------------|-5---5-----5-------5---5-|
|-----------------------|-------------------------|
|-----------------------|-------------------------|


  F#m                              N.C.(F)
  E   Q   S S +E    S S +S  S E     E  E  E  S  S  Q     E  E
|--------------------------------|----------------------------|
|--------------------------------|-----------------------6----|
|-----7---------------------7----|--------5-----------------7-|
|-7---7---7s5-(5)---7-7-(7)---7--|-----7-----7h=8--7----------|
|-9-------5s7-(7)---5-5-(5)---5--|--8-------------------------|
|--------------------------------|----------------------------|
|
| S S Q.       S  S E    E    E     E  E  E  S  S  E  E  E  E
|--------------------------------|----------------------------|
|--------------------------------|----------------------------|
|-----7--------------------------|----10----------10----10----|
|------------------------7----7/-|-------10-------------------|
|-5s7----------9s10-9----5----5/-|-12-------12s13----10----10-|
|--------------------------------|----------------------------|


  N.C.(A)
                     |--3--|
   Q     S E     S   S   S S  E  E  E
|--------5----------------------------|
|--------5-----------9h=12p9----------|
|--------6-----------9----------------|
|--------7-------------------11-------|
|--------------------------------9s11-|
|--5----------------------------------|
|
|  E.  S E    S  S  +E        E  E  E
|-------------------------------------|
|-------------------------------------|
|-13--11s9---11s13-(13)------11-11s13-|
|-------------------------------------|
|-------------------------------------|
|-------------------------------------|


 Bridge
  B/Eb                                D5/G
    |--3---|
    S   S  S  S  S  S  S  S E       E S  S S E
|-------------------------------------5s=7s5-5-|
|--12h=14p12--------------------------3s=5s3-3-|
|--11--------11-------11--------------0------0-|
|--13--------11----13p11-----------------------|
|---------------14-------14--------------------|
|----------------------------------------------|
|
|  +H                          Q         Q
|----------------------------------------------|
|-----------------------------14b16r====14-----|
|-(13)-----------------------------------------|
|----------------------------------------------|
|----------------------------------------------|
|----------------------------------------------|


                           D/B
            |-3--|
   Q      E S  S S  E  S S  E    E
|-----------------------------------|
|-----------9h12p9---------10-------|
|-----------9---------------7-------|
|------------------11--9----7-------|
|---------------------------9----9--|
|---------------------------7-------|
|
|  S  E.  E E       E  S S  S E.
|-----------------------------------|
|-----------------------------------|
|-12s11--11s9-------9---------------|
|---------------------10s9-11s9-----|
|-----------------------------------|
|-----------------------------------|


       Bm/D             F#5/D        N.C.(A)
   Q   S S S S  S  S  S S S  S S S    E.      S Q        H
|------7h9-7h9--7-------9-7--------|------------------------------------|
|------7---7----7-10-10-7-7-10-7---|------------------------------------|
|------7---7----7--7--7-7-7--7-7---|------------------------------------|
|----------------------------------|------------------------------------|
|----------------------------------|------------------------------------|
|----------------------------------|--5---------------------------------|
|
| +Q.      E    H                     S  S  S E    E  S.    T E.  S  E.
|----------------------------------|------------------------------------|
|----------------------------------|------------------------------------|
|----------------------------------|-11s13-11-9---11s13----11s9--11s13--|
|-(9)------9s==14------------------|------------------------------------|
|----------------------------------|------------------------------------|
|----------------------------------|------------------------------------|


  B5/Ab             D5/G
    S  S Q  E  E    S S   S   S    E
|-------------------5s7s==5s==7s===5-|
|---7s=9-7----------3s5s==3s==5s===3-|
|---4s=6-4----------0----------------|
|---6s=8-6---------------------------|
|------------------------------------|
|------------------------------------|
|
|  +H          Q         +S   E.
|------------------------------------|
|------------------------------------|
|-(13)--------14b16-----(14)-14b16r==|
|------------------------------------|
|------------------------------------|
|------------------------------------|


                               D/B
                    |--3---|
   H                S  S   S E  Q
|------------------------------------|
|------------------------------10----|
|-------------------9h11p==9----7----|
|----------------------------9--7----|
|-------------------------------9----|
|-------------------------------7----|
|
|  S  S  E  +S  E.  S    S   E  S E.
|------------------------------------|
|------------------------------------|
|-11s12p11-(11)-9--11s===9s==7--7h9--|
|------------------------------------|
|------------------------------------|
|------------------------------------|


  D5/B                                   N.C.(C)
   S  S  Q           S S  E E Q          Q   E E Q    E E
|--------------------7h9p=7------------|------------------|
|-10s12s10------------------7----------|--------------x---|
|--7s=9s=7-----------------------------|----------------5-|
|--9s11s=9-----------------------------|----------------5-|
|--------------------------------------|---------5--------|
|--------------------------------------|-----5---5------5-|
|
|                                                  ~~
|  E     S  S  S  S  E    Q   E T  T S   Q.    E E Q.
|--------------------------------------|------------------|
|--------------------------------------|------------------|
|------------------------11---9-9h11p9-|-5----------------|
|--9-----9s12s11-14s12-----------------|-------5-7-5------|
|--------------------------------------|------------------|
|--------------------------------------|------------------|


 Outro
       C5/A       N.C.(A)
  +Q   E E H      Q      E   E   Q       E   E
|---------------|--------------------------------|
|----------3----|--------------------------------|
|-(5)--5-0-5----|--------6---------------7---5---|
|-(5)--5-0-5----|--------7---------------7---5---|
|----------5----|--------------------------------|
|-(5)--5--------|-5------------------------------|
|
|  W              E    E E   S S S S S S S S S S
|---------------|--------------------------------|
|---------------|-8b10-8-------------------------|
|---------------|--------7b9-7-5-----------------|
|---------------|----------------7-5-------------|
|---------------|--------------------7-6-5-3-----|
|---------------|----------------------------5-3-|


                    \1/
  +E    E   E   E   H
|--------------------------------------|
|-------------------3------------------|
|-(5)---5---5---0---5------------------|
|-(5)---5---5---0---5------------------|
|-------------------5------------------|
|--------------------------------------|
|
|  S  S S S S S S S S   E S   S S S S
|--------------------------------------|
|--------------------------------------|
|--------------------------------------|
|-------------------5h==7-7b9r7p5------|
|---------3-5s7-5-7---------------7-5--|
|--0--3-5------------------------------|


  N.CA/E) C5/A  D5/A               Csus2/D
                                    \1/
  Q  Q     E  E E   E   +Q   E   E  H
|---------------------|--------------------|
|----5----------------|-------------3------|
|----6-----5--5-7---5-|-(5)--5---0--5------|
|----7-----5--5-7---5-|-(5)--5---0--5------|
|----7----------------|-------------5------|
|-5--------5--5-5---5-|-(5)--5-------------|
|
| Q  Q    +Q    Q       +Q   Q     +H
|----8----(8)---8-----|-(8)--8-----(8)-----|
|----5----(5)---5-----|-(5)--5-----(5)-----|
|----7b9--(7)---7b9---|-(7)--7b9---(7)-----|
|---------------------|--------------------|
|---------------------|--------------------|
|---------------------|--------------------|


  N.C.(AA/E       D5/A               Csus2/D
                                     \1/
  Q     Q     E E E   E   +Q   E E E Q.
|-----------------------|------------------|
|-------5---------------|------------3-----|
|-------6-----5-5-7---5-|-(5)--5-0---5-----|
|-------7-----5-5-7---5-|-(5)--5-0---5-----|
|-------7---------------|------------5-----|
|-5-----------5-5-5---5-|-(5)--5-----------|
|
| E E   E E   Q   E   E    W
|-------8-----8-------8-|------------------|
|-------5-----5---------|------------------|
|---7b9---7b9-----7b9---|------------------|
|-----------------------|------------------|
|-----------------------|------------------|
|-----------------------|------------------|


     C/D         C5/A     C5/A   Gmaj7sus4/CN.C.(A5/E)
  Q  Q    Q  E   E   +Q   Q    E Q.         W
|------------------|----------------------|-----------------*|
|----x-------x-----|-------------7--------|-----------------*|
|----------------5-|-(5)--5----7-5--------|-----------------*|
|----------------5-|-(5)--5----5-5--------|-----------------*|
|------------------|-------------3--------|-----------------*|
|----------------5-|-(5)--5----5----------|-----------------*|
|
| Q  H       Q        Q   H         E E     Q  E E E   E Q
|----8-------8-----|------8---------8-----|-5---------------*|
|----5-------5-----|------5---------5-----|-5----5-5--------*|
|----7b9-----7b9---|------7b9---------7b9-|----8---7b8r6----*|
|------------------|----------------------|-----------------*|
|------------------|----------------------|-----------------*|
|------------------|----------------------|-----------------*|


Duration Legend
---------------
W - whole; H - half; Q - quarter; E - 8th; S - 16th; T - 32nd; X - 64th; a - acciaccatura
+ - note tied to previous; . - note dotted; .. - note double dotted
Uncapitalized letters represent notes that are staccato (1/2 duration)
Irregular groupings are notated above the duration line
Duration letters will always appear directly above the note/fret number it represents the
duration for.  Duration letters with no fret number below them represent rests.  Multi-
bar rests are notated in the form Wxn, where n is the number of bars to rest for.  Low
melody durations appear below the staff

Tablature Legend
----------------
 h   - hammer-on
 p   - pull-off
 b   - bend
 pb  - pre-bend
 r   - bend release (if no number after the r, then release immediately)
 /\  - slide into or out of (from/to "nowhere")
 s   - legato slide
 S   - shift slide
  - natural harmonic
[n]  - artificial harmonic
n(n) - tapped harmonic
 ~   - vibrato
 tr  - trill
 T   - tap
 TP  - trem. picking
 PM  - palm muting
\n/  - tremolo bar dip; n = amount to dip
 \n  - tremolo bar down
 n/  - tremolo bar up
/n\  - tremolo bar inverted dip
 =   - hold bend; also acts as connecting device for hammers/pulls
 <>  - volume swell (louder/softer)
 x   - on rhythm slash represents muted slash
 o   - on rhythm slash represents single note slash

Misc Legend
-----------
 |  - bar
||  - double bar
||o - repeat start
o|| - repeat end
*|  - double bar (ending)
 :  - bar (freetime)
 $  - Segno
 &  - Coda
Tempo markers -  = BPM(8/16=s8/s16), where s8 = swing 8ths, s16 = swing 16ths


3. Crosstown Traffic

Gtr I (D# G# C# F# A# D#) - 'Untitled'
Gtr II (D# G# C# F# A# D#) - 'Untitled'

Intro
  Q=116
  Bsus4
 4/4
  Gtr II
   |      |  |  |  |  |   |   |  |  |  |  |
   /      /  /  /  /  /   /   /  /  /  /  /

  Gtr I
|--9------9--9------------------------------|
|--9------9--9--9--9--9--(9)--9--9--9--9--9-|
|-11b13==11-11-11-11-11-(11)-11-11-11-11-11-|
|-------------------------------------------|
|-------------------------------------------|
|-------------------------------------------|


   |  |  |   |   |  |  |  |  |   |     |
   /  /  /   /   /  /  /  /  /   /     /

|----------------------9--9--9-----------||
|--9--9--9--(9)--9--9--9--9--9-----------||
|-11-11-11-(11)-11-11-11-11-11r-11-11-10-||
|----------------------------------------||
|----------------------------------------||
|----------------------------------------||


  C#7+9                              F#7+9
  | | |  | |    | |  |     |    | |   | | |   | || | | |     | |
  / / /  / /    / /  /     /    / /   / / /   / // / / /     / /

                                      ~~~~~~
|----------------------------------|----------------------------|
|-------------------12-------------|----------------------------|
|-----------11s13------13s11-9-----|-11---9---------------------|
|------------------------------11--|----------------------------|
|----------------------------------|----------------------------|
|----------------------------------|----------------------------|
|
| Gtr III
|----------------------------------|----------------------------|
|----------------------------------|----------------------------|
|----------------------------------|----------------------------|
|----------------------------------|-------------2-3-4-2b2.5----|
|-4-4-----------2-3--4-----2-------|--------2h4--------------4--|
|------2h4----------------------4--|--2-2-----------------------|


  C#7+9
  | | |   | |    | |  |     |    | |
  / / /   / /    / /  /     /    / /

|------------------------------------|
|--------------------12--------------|
|------------11s13------13s11-9------|
|-------------------------------11---|
|------------------------------------|
|------------------------------------|
|
|------------------------------------|
|-----5------------------------------|
|-----4------------------------------|
|------------------------------------|
|-4-4------------2-3--4-----2--------|
|-------2h4----------------------4---|


  F#7+9                       C#7+9
   | | |   | || | | |     |   | | |   | |    | |  |     |    | |
   / / /   / // / / /     /   / / /   / /    / /  /     /    / /

   ~~~~~~
|---------------------------|-----------------------------------|
|---------------------------|--------------------12-------------|
|-11---9--------------------|------------11s13------13s11-9-----|
|---------------------------|-------------------------------11--|
|---------------------------|-----------------------------------|
|---------------------------|-----------------------------------|
|
|---------------------------|-----------------------------------|
|---------------------------|-----5-----------------------------|
|---------------------------|-----4-----------------------------|
|-------------2-3-4-2b2.5---|-----------------------------------|
|--------2h4--------------4-|-4-4------------2-3--4-----2-------|
|--2-2----------------------|-------2h4----------------------4--|


  F#7+9
   | | |   | || | | |     |
   / / /   / // / / /     /

   ~~~~~~
|----------------------------|
|----------------------------|
|-11---9---------------------|
|----------------------------|
|----------------------------|
|----------------------------|
|
|----------------------------|
|----------------------------|
|----------------------------|
|-------------2-3-4-2b2.5----|
|--------2h4--------------4--|
|--2-2-----------------------|


  Bsus4
  | | | | | |  |  | | | | |   |   || |  |  |     |     |   | |   |
  / / / / / /  /  / / / / /   /   // /  /  /     /     /   / /   /

                              ~~~~~~~~~~~~~~~~~~       ~~~~~~~~~
|---------------------------|---------------------------------------||
|---------------------------|---------------------------------------||
|---------------------------|-9-9--9-9-----9--9-(9)----9-9---9------||
|---------------------------|-----------------------------------11\-||
|---------------------------|---------------------------------------||
|---------------------------|---------------------------------------||
|
|                                                ~~~~~~
|-0-0-0-0-0-0-(0)-0-0-0---0-|-0----0-0-----0--0--0------------------||
|-0-0-0-0-0-0-(0)-0-0-0---0-|-0----0-0-----0--0--0------------------||
|-4-4-4-4-4-4-(4)-4-4-4s6-6-|-6s9--9-9s11-11-11-11b13=======11r-----||
|---------------------------|---------------------------------------||
|---------------------------|---------------------------------------||
|---------------------------|---------------------------------------||


   Verse 1 & 2
    Gtr III
||------------|-----------|-----------|-----------|
||o-5-5-------|-5-5-------|-5-5-------|-5-5-------|
||--4-4-------|-3-3-------|-4-4-------|-3-3-------|
||--3-3-------|-4-4-------|-3-3-------|-4-4-------|
||o-4-4-------|-----------|-4-4-------|-----------|
||------------|-----------|-----------|-----------|


|-----------|-----------|-----------|
|-3-3-------|-3-3-------|-----------|
|-2-2-------|-1-1-------|-7-6-------|
|-1-1-------|-2-2-------|-5-5-------|
|-2-2-------|-----------|-----------|
|-----------|-----------|-5-5-------|


  Gtr I
|-------------------------|
|-------------------------|
|-------------------------|
|-------------------------|
|-------------------------|
|-------------------------|
|
| Gtr III
|-----------------------0-|
|-----------------------0-|
|-6-5-5-5-5-5-(5)-5-5-5---|
|-4-4-4-4-4-4--4--4-4-4---|
|-------------------------|
|-4-4-4-4-4-4-(4)-4-4-4---|
|
|-------------------------|
|-------------------------|
|-------------------------|
|-------------------------|
|-------------------------|
|-------------------------|


     ~~~~~~~~~~~~~~~~~~~~~~~~~~~~~~~~~~~~~~~~~~~~~~~
|-----------------------------------------------------------||
|---12----12---12-12------12-12-(12)---12-12-12------12b14\-||
|-----------------------------------------------------------||
|-----------------------------------------------------------||
|-----------------------------------------------------------||
|-----------------------------------------------------------||
|
|----0-------0--0-(0)---0--0------0-----0--0--0-------------||
|----5-------5--5-(5)---5--5------5-----5--5--5-------------||
|-4h=6-------6--6-(6)---4--6------6-----4--4--4-------------||
|-----------------------------------------------------------||
|-----------------------------------------------------7\----||
|-----------------------------------------------------------||
|
|    ~~~~~~~~~~~~~~~~~~~~~~~~~~~~~~~~~~~~~~~~~~~~~~~
|-----------------------------------------------------------||
|---12------------12-------------12----------12-------------||
|---11b13---------11b13----------11b13-------11b13==(11)r\--||
|-----------------------------------------------------------||
|-----------------------------------------------------------||
|-----------------------------------------------------------||


 Chorus
  C#7+9                  F#7+9
  Gtr II
  | | |  | || | | | | |  | |     |    | |    | |  |  |     | |
  / / /  / // / / / / /  / /     /    / /    / /  /  /     / /

  Gtr I
|----------------------|--------------------------------------|
|----------------------|-------------12-----------------------|
|----------------------|-----11s13-------13s11-9----11-----9--|
|----------------------|-------------------------11-----------|
|----------------------|--------------------------------------|
|----------------------|--------------------------------------|
|
| Gtr III
|----------------------|--------------------------------------|
|----------------------|--------------------------------------|
|----------------------|--------------------------------------|
|----------------------|---------------------2-3--4--2b2.5----|
|-4-4-------2-3-4-2----|-----------2h=4--------------------4--|
|------2h4----------4--|-2-2----------------------------------|


  C#7+9
   |    | |   | || | | | | |
   /    / /   / // / / / / /

|----------------------------|
|----------------------------|
|----------------------------|
|-11p9-----------------------|
|------11--------------------|
|----------------------------|
|
|----------------------------|
|---------5------------------|
|---------4------------------|
|----------------------------|
|--4----4--------2-3-4-2-----|
|-----------2h4----------4---|


  F#7+9                     C#7+9                   F#7+9
  | | |  | || | | |     |   | | |   | || | | | | |  | | |  | || | | |     |
  / / /  / // / / /     /   / / /   / // / / / / /  / / /  / // / / /     /

|-------------------------|-----------------------|-------------------------|
|-------------------------|-----5-----------------|-------------------------|
|-------------------------|-----4-----------------|-------------------------|
|-----------2-3-4-2b2.5---|-----------------------|-----------2-3-4-2b2.5---|
|------2h4--------------4-|-4-4--------2-3-4-2----|------2h4--------------4-|
|-2-2---------------------|-------2h4----------4--|-2-2---------------------|


  1.
  Bsus4
  Gtr II
   |  |  |  |  |  |   |   |  |  |  |  |
   /  /  /  /  /  /   /   /  /  /  /  /

  Gtr I
|---------------------------------------|
|---------------------------------------|
|---------------------------------------|
|---------------------------------------|
|---------------------------------------|
|---------------------------------------|
|
| Gtr III
|--0--0--0--0--0--0--(0)--0--0--0--0--0-|
|--0--0--0--0--0--0--(0)--0--0--0--0--0-|
|-11-11-11-11-11-11-(11)-11-11-11-11-11-|
|---------------------------------------|
|---------------------------------------|
|---------------------------------------|


      |    | |  | | |     |   |       | |    |
      /    / /  / / /     /   /       / /    /

      ~~~~~~~~~~~~~~~~~~~     ~~~~~~~~~~~~~
|-------------------------------------------------||
|------------------------------------------------o||
|-----9--9---9--9---9--9-(9)--9-----9---9---(9)\--||
|-------------------------------------------------||
|------------------------------------------------o||
|-------------------------------------------------||
|
|                             ~~~~~~
|-----0--0---0--0---0--0--0---0-------------------||
|-----0--0---0--0---0--0--0---0------------------o||
|-11s13-13--13-13--13-13-13--13b16=====13r-(13)\--||
|-------------------------------------------------||
|------------------------------------------------o||
|-------------------------------------------------||


 Guitar Break
  2.
|--------------------------------|-------------------------------||
|--------------------------------|-12-12-------------------------||
|--------------------------------|-------------------------------||
|--------------------------------|-------------------------------||
|--------------------------------|-------------------------------||
|--------------------------------|-------------------------------||
|
|---10---------------------------|-------7-7-(7)-7-7-------------||
|--------------------------------|-------------------------------||
|---10---10---10-(10)---10-9-9-8-|-------7-7-(7)-7-7-6-6-6-6-(5)-||
|----9----9----9--(9)----9-8-8-7-|-------6-6-(6)-6-6-5-5-5-5--4--||
|--------------------------------|-------------------------------||
|-9----9----9---------9----------|--7------------------5-5-5--4--||


         ~~~~~~
|---------------------|---------------------------|
|--------7-(7)-9-7----|---------------------------|
|-----/8-----------8\-|-------6b8-----6b8---6p4---|
|---------------------|-----6-------------------6-|
|---------------------|---------------------------|
|---------------------|---------------------------|
|
|---------------------|---------------------------|
|----------------6----|-------6-------------6---4-|
|------5-5-------6-4--|-4b5---6-----4h5-----6---4-|
|------4-4------------|---------------------------|
|---------------------|---------------------------|
|-4-4-------4--4------|-----4-----4-------4-------|


            ~~~~~~~~~~~~
|-------------------------------|
|-------7b9-7b9====(7)r---------|
|-------------------------------|
|-------------------------------|
|-------------------------------|
|-------------------------------|
|
|-------------------------------|
|-------6-----------------6-----|
|-4b5---6--------4h=5-----6-----|
|-------------------------------|
|-------------------------------|
|-----4-----4-----------4---4-4-|


                                                        Gt
  Gtr II
|-------------------------------------------------------||
|-/15---15-15---15-15-15-15---15-15---15-15---15-15-----||
|-/16---16-16---16-16-16-16---16-16---16-16---16-16-----||
|-------------------------------------------------------||
|-------------------------------------------------------||
|-------------------------------------------------------||
|
| Gtr I
|-------------------------------------------------------||
|---7b9-----7b9-----7-----------------------------------||
|-------------------------6b8-----6b8-----6b8-----6p4---||
|-----------------------------------------------------6-||
|-------------------------------------------------------||
|-------------------------------------------------------||
|
| Gtr III
|-------------------------------------------------------||
|-------------------------------------------------------||
|-------------------------------------------------------||
|-------------------------------------------------------||
|-------------------------------------------------------||
|---4-------4-------5-----5-------5-------5-------5---0-||


 Out-Chorus
  C#7+9                              F#7+9
 r II
  | | |  | |    | |  |     |    | |   |       |   |   | || | | |     |
  / / /  / /    / /  /     /    / /   /       /   /   / // / / /     /

|----------------------------------|-------------------------------------|
|----------------------------------|-------------------------------------|
|----------------------------------|-------------------------------------|
|----------------------------------|-------------------------------------|
|----------------------------------|-------------------------------------|
|----------------------------------|-------------------------------------|
|
|                                                 ~
|----------------------------------|-------------------------------------|
|-------------------12-------------|-------------------------------------|
|-----------11s13------13s11p9-----|-11b13==(11)r-9----------------------|
|------------------------------11--|-------------------------------------|
|----------------------------------|-------------------------------------|
|----------------------------------|-------------------------------------|
|
|----------------------------------|-------------------------------------|
|-5-5------------------------------|-------------------------------------|
|-4-4------------------------------|-------------------------------------|
|-3-3------------------------------|-------------------------------------|
|-4-4-----------2-3--4-----2-------|---------------------2-3-4-2b2.5-----|
|------2h4----------------------4--|--2-------2-----2h4--------------4---|


  Bsus4
  Gtr II
   |  |  |  | | |  |  | |  |  |  |   | | |  |  | | | | | |     |
   /  /  /  / / /  /  / /  /  /  /   / / /  /  / / / / / /     /

  Gtr I
|----------------------------------|----------------------------------|
|-12-12-12-12----------------------|----------------------------------|
|-------------9-9-(9)-9-9----------|---------------------9b9.5-9b9.5==|
|-------------------------11-11-11-|-9-9-9-(9)-9-9-9-9-9--------------|
|----------------------------------|----------------------------------|
|----------------------------------|----------------------------------|
|
| Gtr III
|--0--0--0--0-0-0-(0)-0-0--0--0--0-|-0-0-0-(0)-0-0-0-0-0-0------------|
|--0--0--0--0-0-0-(0)-0-0--0--0--0-|-0-0-0-(0)-0-0-0-0-0-0------------|
|--4--4--4--4-4-4-(4)-4-4--4--4--4-|-4-4-4-(4)-4-4-4-4-4-4------------|
|----------------------------------|----------------------------------|
|----------------------------------|---------------------------x\-----|
|----------------------------------|----------------------------------|


  C#7+9
   |    | |  | |    | |  |     |  | |
   /    / /  / /    / /  /     /  / /

|-------------------------------------|
|-----------------------12-12s14-12---|
|-(9)r\---------11s13-----------------|
|-------------------------------------|
|-------------------------------------|
|-------------------------------------|
|
|-------------------------------------|
|-------------------------------------|
|-------------------------------------|
|--3----3-----------------------------|
|--4----4-----------2-3--4-----2------|
|----------2h4--------------------4---|


  F#7+9                       Bsus4
   | |  |    | || | |   | |    |  |  |  |  |  |       |   |  |  |   |
   / /  /    / // / /   / /    /  /  /  /  /  /       /   /  /  /   /

   ~~
|---------------------------|------------------------------------------|
|---------------------------|-12-12-12-12-12-12b14==(12)-12-12-12r\----|
|-13---11\------------------|------------------------------------------|
|---------------------------|------------------------------------------|
|---------------------------|------------------------------------------|
|---------------------------|------------------------------------------|
|
|-------------------------0-|--0--0--0--0--0--0------(0)--0--0---------|
|-------------------------0-|--0--0--0--0--0--0------(0)--0--0---------|
|---------------------------|--4--4--4--4--4--4------(4)--4--4---------|
|---------------------------|------------------------------------------|
|---------------2-3-4-2h4---|-----------------------------------5\--x\-|
|--2-2-----2h4--------------|------------------------------------------|


     C#7+9
      |  | |   | |    | |  |  | | |
      /  / /   / /    / /  /  / / /

         ~~
|-----------------------------------|
|-------12----14--------------------|
|-11s13-----------13s11p9----11-9---|
|-------------------------11--------|
|-----------------------------------|
|-----------------------------------|
|
|-----------------------------------|
|-----------------------------------|
|-----------------------------------|
|----/3--3--------------------------|
|----/4--4------------2-3--4--2-----|
|-----------2h=4----------------4---|


  F#7+9
   |    |  |   | || | |   | |
   /    /  /   / // / /   / /

           ~~
|-----------------------------|
|-----------------------------|
|-11b13---11------------------|
|-----------------------------|
|-----------------------------|
|-----------------------------|
|
|---------------------------0-|
|---------------------------0-|
|-----------------------------|
|-----------------------------|
|-----------------2-3-4-2h4---|
|--2----2----2h4--------------|


  Bsus4
   |  |     |  |     |  |       |    |  |     |  |     |
   /  /     /  /     /  /       /    /  /     /  /     /

|--------------------------------------------------------|
|--------------------------------------------------------|
|-11-11b13-11-11b13-11-11b13==(11)r-11-11b13-11-11b13-11-|
|--------------------------------------------------------|
|--------------------------------------------------------|
|--------------------------------------------------------|
|
|--0--0-----0--0-----0--0------(0)---0--0-----0--0-----0-|
|--0--0-----0--0-----0--0------(0)---0--0-----0--0-----0-|
|--4--4-----4--4-----4--4------(4)---4--4-----4--4-----4-|
|--------------------------------------------------------|
|--------------------------------------------------------|
|--------------------------------------------------------|


    |     |  |       |  | |      |  |     | |  |
    /     /  /       /  / /      /  /     / /  /

|---------------------------------------------------|
|------------------------12-------------------------|
|--11b13-11-11b13==(11)-----11r(11)p9------11--9b10-|
|-------------------------------------11------------|
|---------------------------------------------------|
|---------------------------------------------------|
|
|                    ~~~~~~~~~~~~~~~~~~~~~
|---0-----0--0------(0)---0------0-----0------------|
|---0-----0--0------(0)---0------0-----0------------|
|-/16----16-16b18==(16)--16-----16----16r-----------|
|---------------------------------------------------|
|-------------------------------------------x\------|
|---------------------------------------------------|


  C#7+9                           F#7+9
    |   | |  | || | |     |  | |   |  |  |   | || |     | | | |
    /   / /  / // / /     /  / /   /  /  /   / // /     / / / /

|-------------------------------|-------------------------------*|
|---------------------------12--|-------------------------------*|
|---------------------11s13-----|-11-11-13---9------11s13-9-----*|
|-------------------------------|-------------------------------*|
|-(11)\-------------------------|-------------------------------*|
|-------------------------------|-------------------------------*|
|
|-------------------------------|-------------------------------*|
|-------------------------------|-------------------------------*|
|-------------------------------|--3--3-------------------------*|
|-------3-----------------------|--4--4-------------------------*|
|---4---4-------2-3-4-----2-----|---------------2-3-----4-2-----*|
|----------2h4---------------4--|----------2h4--------------4---*|

4. Voodoo Chile

Sorry Guys but i havent done this one yet. It is Verrrrry Complicated!!!!
It Is Almost Impossible to tab!!!! if you want just tune ur guitar down half a
step and much around with some licks over the track
Sorry Guys! :(


5. Little Miss Strange

Intro:
(acoustic)
--0----0---0--0----0---0---0---0---0---0---0----0---0---0---0---0---0-|
-13---13--13-13---12--12--12--12--12--12--12---10--10--10--10--10--10-|
-14---14--14-14---12--12--12--12--12--12--12---11--11--11--11--11--11-|
--0----0---0--0----0---0---0---0---0---0---0----0---0---0---0---0---0-|
----------------------------------------------------------------------|
----------------------------------------------------------------------|

--0----0---0--0----0---0---0---0---0---0---0----0---0---0---0---0---0-|
-13---13--13-13---12--12--12--12--12--12--12---10--10--10--10--10--10-|
-14---14--14-14---14--14--14--14--14--14--14---11--11--11--11--11--11-|
--0----0---0--0----0---0---0---0---0---0---0----0---0---0---0---0---0-|
----------------------------------------------------------------------|
----------------------------------------------------------------------|

guitar 1
------------------------------15(17)--15(17)15p13----13-15-|
-/15---15-15----/15---15-15-----------------------15-------|
-----------------------------------------------------------|
-----------------------------------------------------------|
-----------------------------------------------------------|
-----------------------------------------------------------|
guitar 2
------------------------------------------------------------|
-/13---13-13----/13---13-13---13(15)13----------------------|
---------------------------------------12(14)12--10--12--10-|
------------------------------------------------------------|
------------------------------------------------------------|
------------------------------------------------------------|
guitar 1
-15(17)15-13---------------------------------|
-------------15--15--------------------------|
--------------------------7--9p7----9p7---7--|
-----------------------/9--------9-----------|
---------------------------------------------|
---------------------------------------------|
guitar2
---------------------------------------------------|
---------------------------10--12p10------10h12-10-|
-12(14)12-10-----------/11------------11-----------|
-------------12--12--------------------------------|
---------------------------------------------------|
---------------------------------------------------|
guitar 1
--------------------------------------|
-----10--12p10----10(12)-10--10(12)10-|
-/11-----------11---------------------|
--------------------------------------|
--------------------------------------|
--------------------------------------|
guitar2
----------------------------------------|
-----15-17p15----17(19)-17(19)-17(19)17-|
-/16----------16------------------------|
----------------------------------------|
----------------------------------------|
----------------------------------------|
chorus
guitar 1 (2x)
||--------------------------------------||
||-15(17)-15(17)-15(17)-15(17)-15(17)15-||
||--------------------------------------||
||--------------------------------------||
||--------------------------------------||
||--------------------------------------||
guitar 2  (2x)
||-------------------------------||
||-------------------------------||
||-14(16)-14(16)-14(16)-14(16)14-||
||-------------------------------||
||-------------------------------||
||-------------------------------||

solo:

guitar 1
-10---------------------------10-------------|
----12-10------------------10-----13-13(15)--|
----------12p10-----12/13--------------------|
----------------12---------------------------|
---------------------------------------------|
---------------------------------------------|
guitar 2
-----------------------------------12(14)12--10---------------|
------------------------------------------------12-10---------|
------------------------------------------------------12-11---|
-----------------------------------------------------------12-|
--------------------------------------------------------------|
--------------------------------------------------------------|

(guitar 1 plays intro figure)

guitar 2
--------10--------------------------------------|
-13(15)----13-10-----------------------10-------|
-----------------12(14)-12-10----10h12----10----|
------------------------------12-------------12-|
------------------------------------------------|
------------------------------------------------|

---------------------------------------------------------------------|
-----------------------------------------------------------13--------|
--12(14)-12-10-------12(14)-12-10----12(14)-12-10----12(14)---12(14)-|
---------------12-10--------------12--------------12-----------------|
---------------------------------------------------------------------|
---------------------------------------------------------------------|

----------------------------------------------------------------10--------------|
-------------------------------------------------------------10----13-10--------|
-----10-12-10---------------------------------------10h12-12-------------12(14)-|
-/12----------12-10(11)----------10----------10--12-----------------------------|
------------------------12-10h12----10-8-/12------------------------------------|
--------------------------------------------------------------------------------|

-------------------10----------------------------------------------|
----------------10-------15(17)-15(17)-15(16)-15(17)---15(17)15-12-|
-12-10----10h12----------------------------------------------------|
-------12----------------------------------------------------------|
-------------------------------------------------------------------|
-------------------------------------------------------------------|

---------------------------------------------------------|
---------------------------------------------------------|
-14(16)-14-12-14-12-------12(14)--12(14)---12--12(14)-12-|
--------------------14-12--------------------------------|
---------------------------------------------------------|
---------------------------------------------------------|

-------------------------------------------------------------|
-------------------------------------------------------------|
----14p12----12-14-14(16)14-12-14p12----14-14(16)14-12-14-14-|
-14-------14-------------------------14----------------------|
-------------------------------------------------------------|
-------------------------------------------------------------|


third chorus
guitar 1
-15(17)-15(17)-15(17)-15(17)--15--||--15-12----------------------||
----------------------------------||--------15-12----------------||
----------------------------------||--------------14-12----------||
----------------------------------||--------------------14-12-14-||
----------------------------------||-----------------------------||
----------------------------------||-----------------------------||
guitar 2
----------------------------------||-----------------------------||
-15(17)-15(17)-15(17)-15(17)--15--||--15-12----------------------||
----------------------------------||--------15-12----------------||
----------------------------------||--------------14-12----------||
----------------------------------||--------------------14-12-14-||
----------------------------------||-----------------------------||

outro:
wah-wah
   (3x) F#  B/F#
||-6p2---6p2---7p2---7p2---||-6p2---6p2---6p2---6p2--|
||-----2-----2-----2-----2-||-----2----2-----2-----2-|
||-------------------------||------------------------|
||-------------------------||------------------------|
||-------------------------||------------------------|
||-------------------------||------------------------|
   (3x) (G# C#/G#)4x
||-8p4---8p4---9p4---9p4---||-8p4---8p4---8p4---8p4--|
||-----4-----4-----4-----4-||-----4----4-----4-----4-|
||-------------------------||------------------------|
||-------------------------||------------------------|
||-------------------------||------------------------|
||-------------------------||------------------------|

guitar 1 (3x) (A# D#/A#)4x
||-10p6---10p6---8p6---8p6---||-10p6---10p6---10p6---10p6--|
||-----6------6-----8-----8--||-----6------6------6------6-|
||---------------------------||----------------------------|
||---------------------------||----------------------------|
||---------------------------||----------------------------|
||---------------------------||----------------------------|

guitar 2 (3x)
||-10p6---10p6---11p6---11p6---||-10p6---10p6---10p6---10p6--|
||-----6------6------6------6--||-----6------6------6------6-|
||-----------------------------||----------------------------|
||-----------------------------||----------------------------|
||-----------------------------||----------------------------|
||-----------------------------||----------------------------|

(E  A)4x
----------------------------------------------------------------------|
-15-15-15-15----15-15-15-15---15-15-15-15---14-14--12--12-----12------|
-16-16-16-16----16-16-16-16---16-16-16-16---14-14--12--12(13)-12(13)--|
----------------------------------------------------------------------|
----------------------------------------------------------------------|
----------------------------------------------------------------------|
guitar 1
----------------|
----12----------|
-12----12-12-12-|
----------------|
----------------|
----------------|
guitar 2
--------------------------------|
----------------------12-15(17)-|
----12----------12-14-----------|
-14----14-12-14-----------------|
--------------------------------|
--------------------------------|
guitar 1 (2x) (A G/A E)2x
||--7h9p7--5h7p5--4h5p4--2h4p2--0---0----||
||-------------------------------------3-||
||---------------------------------------||
||---------------------------------------||
||---------------------------------------||
||---------------------------------------||
guitar 2
||--------------------------------------||
||--5h7p5--4h5p4--2h4p2--0h2p0----------||
||-------------------------------2---1--||
||--------------------------------------||
||--------------------------------------||
||--------------------------------------||

----------------------|
----------------------|
-7-/6-----/9--7--6----|
-------7------------7-|
----------------------|
----------------------|

guitar 1    A G/A E
--7h9p7--5h7p5--4h5p4--0--|
--------------------------|
--------------------------|
--------------------------|
--------------------------|
--------------------------|
guitar 2
------------------------------|
--5h7p5--4h5p4--2h4p2---------|
-----------------------2---1--|
------------------------------|
------------------------------|
------------------------------|


A             G
No one knows where she comes from
Maybe she's a devil in disguise
I can't tell by looking in her eyes
              D      C  D
Little Miss Strange
              D      C  D
Little Miss Strange

             C       D
Little Miss Strange came into my parlor
A             G
I don't know just what to ask her
                                  G
I don't remember what we did after

(chorus)
(solo)

E7 A7 E7 A7 E7 A7 E7 A7

B                    A
Little Miss Strange came out of the darkness
                 D/A
Walked across my head, I stood beneath the light
  A
I told you about the dream I had the other night
              E      D  E
Little Miss Strange
              E      D  E
Little Miss Strange


6. Long Hot Summer Night

Guitar I

D#||----------------------------|----------------------------|
A#||----------------------------|----------------------------|
F#||---------------------3------|----------5--5--------3-----|
C#||----------2b-2b------2------|------0---4--4--------2-----|
G#||--------2----------0--------|--------0-------------------|
D#||--0-2-4--------0-2-2--------|--0-4-----------0-2-2-------|

----------------------------|-------------------------------|
----------------------------|-------------------------------|
---------------------3------|----------5--5-----------------|
----------2b-2-------2------|----------4--4--2--------------|
--------2-------------------|------------------4-2----------|
--0-2-4--------0-2-2--------|--0-4-4-4-------------4-3-2-0--|

--------4--x-x-------2--x-x-|--x----4--x-x----x-x-x-----|
--------4--x-x-------2--x-x-|--x----4--x-x----x-x-x-----|
--------4--x-x-------3--x-x-|--x----5--x-x----x-x-x-4---|
--------3--x-x-------4--x-x-|--x----6--x-x-4--x-x-x-4---|
--4--4----------------------|---------------------------|
---------------2--2---------|---------------------------|

-------4-----------x-x-x---|-------------------------|
-------4-----------8-x-x-8-|-------------------------|
-------4-----------8-x-x-8-|--------5----------------|
-------3-----------8-x-x-8-|--------6----4-----4-4---|
--4--------4-6--6----------|--------6-------2--2-2---|
---------------------------|--4--4-------------------|

-----------x-x-------2-x-x-x-|--------4--x-x---------------|
--------6--x-x-------2-x-x-x-|--------4--x-x------3-3-3----|
--------6--x-x-------3-x-x-x-|--------5--x-x----4-4-4-4-4--|
-----6--6--x-x-------4-x-x-x-|--------6--x-x----5-5-5-5-5--|
--4--------------------------|------------------5-5-5-5-5--|
---------------2--2----------|--4--4---------3-------------|

----------------------------|--------------------------|--0-----------0------|
----------------------------|--------------------------|--5--------------2---|
----------------------------|-----4--------------------|--1------3-----------|
--4-----x-------------------|-----4--------------------|--4------4-----------|
-----1--2--3--4-------------|--7-------6--------9------|--0------4-----------|
--------x--------0-0-1-1-2--|----------7----11-----11--|---------2-----------|

----------------------|-------------------------|----------------------------|
--4--4--4--6----------|-------------------------|-------6--x-x-------2-x-x---|
--4--4--4--6----------|-------------------------|-------6--x-x-------3-x-x---|
--4--4--4--6----------|-------------------------|-------6--x-x-------4-x-x---|
--2--2--2--4----------|---------2-4-2-4-2-4-----|--4-----------------4-x-x---|
----------------------|---------------------0---|--------------2--2----------|

------4----------------|------------------x------|--------4----------------|
------4----------------|-------6----------6-x--6-|--------4----------------|
------5------------4---|-------6----------6-x--6-|--------5----------------|
------6------------4---|-------6----------5-x--5-|--------6----------------|
-----------------2-2---|--4---------6--6--x------|--6--6-------------2-2---|
-----------2--2--------|-------------------------|-------------2--2--------|

-----------------------|-------4--x-x-------3-----|
-------6----------2----|-------4--x-x-3--3--3--3--|
-------6----------3----|-------5--x-x-4--4--4--4--|
-------6----------4----|-------6--x-x-5--5--5--5--|
--4---------------4----|--------------5--5--5--5--|
------------2--2-------|--4-----------3--3--3--3--|

-------------------------------|-------------------------------|
--2--2--0--2-2-2-2-2-----------|--2--2--0--2-2-2-2-2-----------|
--3--3-----3-3-3-3-3---3r3-----|--3--3-----3-3-3-3-3---3r3-----|
--4--4-----4-4-4-4-4-4-----4-4-|--4--4-----4-4-4-4-4-4-----4-4-|
-------------------------------|-------------------------------|
-------------------------------|-------------------------------|

-------------------------------|-----------------------------|
--2--2--0--2-2-2-2-2-----------|-----------------------------|
--3--3-----3-3-3-3-3---3r3-----|-----------------------------|
--4--4-----4-4-4-4-4-4-----4-4-|-----4-----------------------|
-------------------------------|--7-----7--6---------9----9--|
-------------------------------|-----------7----9/11---11----|

-------------0---0--------|----------------------|--------------------------|
--5------------2----------|----------------------|--------------------------|
--1------3---------3------|-----------6----------|--6-6-6---4--9-----6--4---|
--4------4------------4-4-|-----4-----6----------|--6-6-6---4--9-----6--4---|
--0------4----------------|--2-----2--4----------|--4-4-4---2--7---x-4--2---|
---------2----------------|----------------------|--------0--------0--------|

--x--x-x-4----x--x-x-4----|--------2--------2-----2-2--|
--x--x-x-4----x--x-x-4----|--------2--------2-----2-2--|
--x--x-x-5----x--x-x-5----|--------3--------3-----3-3--|
--x--x-x-6----x--x-x-6----|--4--4--4--------4-----4-4--|
---------6----------------|--4--4-------4-4---4-4------|
---------4----------------|--2--2-------2-2---2-2------|

---------4-------------------|-----------------------------|
---------4-------------------|-----------------------------|
---------5-------------------|-----------------------------|
---------6-------------------|-----------------------------|
-----------------------------|-----------------------------|
--4-4-4-------4-4-4-4-8-8-4--|--2--2--2--2-2-2--2--2-2-2-2-|

---------4------------4------|----------2------------2------|
---------4------------4------|----------2------------2------|
---------5------------5------|----------3------------3------|
---------6------------6------|----------4------------4------|
-----------------------------|------------------------------|
--4-4-4-------4-4-4-4----4-4-|--2-2-2-2------2-2-2-2----2-2-|

----------4----------------------|----------------------------------|
----------4--------------4-4-4-4-|----------------------------------|
----------5--5-5-5-5-5-5-5-5-5-5-|--8-8-8-8-8-8-8-8-8-8-8-8-8-8-8-8-|
----------6--6-6-6-6-6-6-6-6-6-6-|--9-9-9-9-9-9-9-9-9-9-9-9-9-9-9-9-|
-------------6-6-6-6-6-6-6-6-6-6-|--9-9-9-9-9-9-9-9-9-9-9-9-9-9-9-9-|
--4-4-4-4----4-4-4-4-4-4-4-4-4-4-|--7-7-7-7-7-7-7-7-7-7-7-7-7-7-7-7-|

-----------------------|------------------------|--------4----------------|
-------------2--2------|--------6----------2----|--------4----------6-6---|
-------------3--3------|--------6----------3----|--------5----------7-7---|
--11---------4--4------|--------6----------4----|--------6----------8-8---|
--11---------4--4------|--4--4------------------|--------6----------8-8---|
--9------x-------------|-------------2--2-------|--4--4-------6--6--------|

-------------------4----|------------------------|----------------4----4---|
--------8----------4----|--------6----------4----|--------8-------4----4---|
--------8----------5----|--------7----------5----|--------8-------5----5---|
--------8----------6----|--------8----------6----|--------8-------6----6---|
--6--6-------------6----|--------8----------6----|--6--6----------6----6---|
-------------4--4-------|--6--6-------4--4-------|-------------4-----4-----|

--------------------------|-------------------2/4---|
--------------------------|--------8----------2/4---|
--7--------6--------------|--------8----------3/5---|
--8----------8-7-6--------|--------8----------------|
--8----------------9-6----|--6--6-------------------|
--6--------------------9--|-------------4--4--------|

--------6------------4-2---|-----------------------------|
--------6------------4-2---|-------8-----------10-10--10-|
--------8------------5-3---|-------8-----------8--8---8--|
---------------------------|-------8-----------10-10--10-|
---------------------------|--6--------7-8--8------------|
--6--6-------4-4-4-4-------|-----------------------------|

--------------------------|------------------4-4-4--|--------6--6--------5--|
--------------------------|-------8----------4-4-4--|--------6--6--------5--|
--------7--7----3----3----|-------8----------5-5-5--|--------7--7--------6--|
--------8--8------4----4--|-------8-----------------|--------8--8--------7--|
--------8--8--------------|--6----------------------|-----------------------|
--6--6--------------------|------------4--4---------|--6--6--------5--5-----|

------------------------|----------------------|------------------------|
------------------------|----------------------|------------------------|
----------------6--4~---|----------------------|--4--4--4--5------------|
-----6--4--6----6--4~---|--4-----4-------------|--4--4--4--6------------|
-----6--4--6------------|-----4-----6----------|--2--2--2--6------------|
--4---------------------|----------------------|-----------4------4--4--|

----------------------|---------------------------|
----------------------|---------------------------|
----------------------|---------------------------|
--------6--8----------|---------------------------|
--4--8-----6----------|--6--4---------------------|
----------------------|--------6--5--4--2--0-0-2--|

------------------------------|--------------------------------|
-----------------------7------|--------------------------------|
----------------5--5-5-5--5-5-|--7--7-7-7-7-7-7-5-5-5-5-3-3--3-|
----------------6--6-6-6--6-6-|--8--8-8-8-8-8-8-6-6-6-6-5-5--5-|
--6--6-6-6-6-6--6--6-6-6--6-6-|--8--8-8-8-8-8-8-6-6-6-6-5-5--5-|
----------------4--4-4-4--4-4-|--6--6-6-6-6-6-6-4-4-4-4--------|

--------------------------|--------6-----------------|--------------------x-|
--------4-------------6---|--------6-----------------|------9-------------x-|
--------6----------8--8-8-|--------7-----------------|------8----------5--x-|
--------5----------7--7-7-|--------8----8--6--4-6-4--|-----------6--6--4--x-|
--6--6-------8--8-------8-|--------------------------|----------------------|
--------------------------|--6--6--------------------|----------------------|

-------------------7---------|-----------------------------|
---------6---------5--5-5-5--|-----------------------------|
-------7----7----6----6-6-6--|--5--5--5-5-5--5--5--5-5-5-5-|
--8--8---------5------7---7--|--6--6--6-6-6--6--6--6-6-6-6-|
-----------------------------|--6--6--6-6-6--6--6--6-6-6-6-|
-----------------------------|--4--4--4-4-4--4--4--4-4-4-4-|

-----------------------------|-----------------------------|
-----------------------------|-----------------------------|
--5--5--5-5-5--5-5-5-5-5-5---|--5--5--5-5-5--5--5--5-5-5-5-|
--6--6--6-6-6--6-6-6-6-6-6---|--6--6--6-6-6--6--6--6-6-6-6-|
--6--6--6-6-6--6-6-6-6-6-6---|--6--6--6-6-6--6--6--6-6-6-6-|
--4--4--4-4-4--4-4-4-4-4-4---|--4--4--4-4-4--4--4--4-4-4-4-|

-----------------------------|-----------------------------|
-----------------------------|-----------------------------|
--5--5--5-5-5--5--5--5-5-5-5-|--5--5--5-5-5--5--5--5-5-5-5-|
--6--6--6-6-6--6--6--6-6-6-6-|--6--6--6-6-6--6--6--6-6-6-6-|
--6--6--6-6-6--6--6--6-6-6-6-|--6--6--6-6-6--6--6--6-6-6-6-|
--4--4--4-4-4--4--4--4-4-4-4-|--4--4--4-4-4--4--4--4-4-4-4-|

-----------------------------|-----------------------------|
-----------------------------|-----------------------------|
--5--5--5-5-5--5--5--5-5-5-5-|--5--5--5-5-5--5--5--5-5-5-5-|
--6--6--6-6-6--6--6--6-6-6-6-|--6--6--6-6-6--6--6--6-6-6-6-|
--6--6--6-6-6--6--6--6-6-6-6-|--6--6--6-6-6--6--6--6-6-6-6-|
--4--4--4-4-4--4--4--4-4-4-4-|--4--4--4-4-4--4--4--4-4-4-4-|

-----------------------------|-----------------------------|
-----------------------------|-----------------------------|
--5--5--5-5-5--5--5--5-5-5-5-|--5--5--5-5-5--5--5--5-5-5-5-|
--6--6--6-6-6--6--6--6-6-6-6-|--6--6--6-6-6--6--6--6-6-6-6-|
--6--6--6-6-6--6--6--6-6-6-6-|--6--6--6-6-6--6--6--6-6-6-6-|
--4--4--4-4-4--4--4--4-4-4-4-|--4--4--4-4-4--4--4--4-4-4-4-|

-----------------------------|-----------------------------|
-----------------------------|-----------------------------|
--5--5--5-5-5--5--5--5-5-5-5-|--5--5--5-5-5--5--5--5-5-5-5-|
--6--6--6-6-6--6--6--6-6-6-6-|--6--6--6-6-6--6--6--6-6-6-6-|
--6--6--6-6-6--6--6--6-6-6-6-|--6--6--6-6-6--6--6--6-6-6-6-|
--4--4--4-4-4--4--4--4-4-4-4-|--4--4--4-4-4--4--4--4-4-4-4-|

-----------------------------|-----------------------------||
-----------------------------|-----------------------------||
--5--5--5-5-5--5--5--5-5-5-5-|--5--5--5-5-5--5--5--5-5-5-5-||
--6--6--6-6-6--6--6--6-6-6-6-|--6--6--6-6-6--6--6--6-6-6-6-||
--6--6--6-6-6--6--6--6-6-6-6-|--6--6--6-6-6--6--6--6-6-6-6-||
--4--4--4-4-4--4--4--4-4-4-4-|--4--4--4-4-4--4--4--4-4-4-4-||

Guitar II

D#||------------------|------------------|------------------|---------------|
A#||------------------|------------------|------------------|---------------|
F#||------------------|------------------|------------------|---------------|
C#||------------------|------------------|------------------|---------------|
G#||------------------|------------------|------------------|---------------|
D#||------------------|------------------|------------------|---------------|

------------------|-------------9~-------|-------------------|
------------------|----------9b----9r9---|-------------------|
------------------|----------------------|--9~---------------|
------------------|----------------------|-------------------|
------------------|----------------------|-------------------|
------------------|----------------------|-------------------|

--------11----11h13-11----------9----11-9--------|
--10/13----13----------13/-7/11---11------11/9h7-|
-------------------------------------------------|
-------------------------------------------------|
-------------------------------------------------|
-------------------------------------------------|

------------------------------|------------13~11-------------------12~10---|
------------------------------|---------11~------11-------------10~--------|
-------9b---------------------|------11~---------------------10~-----------|
-----------11h9h--------------|---------------------10---------------------|
----------------11h9h11h9-----|--11~----------------11-10-10~--------------|
------------------------------|--------------------------------------------|

--------------14~-------------|---------9~---------------|
------------------------------|-------------------12~----|
----------13b-----13r13-------|-----------11b11-9--------|
------11----------------------|--------------------------|
--13~-------------------------|--------------------------|
------------------------------|--------------------------|

-------12-14~-12-9--------------------------|------------------------------|
-------------------12-9---------------------|------------------------------|
------------------------12-11-9----9--------|----------13r----13/9-11----9-|
--------------------------------11---11h9---|-------------------------11---|
------------------------------------------9-|------------------------------|
--------------------------------------------|--11--------------------------|

---------------------------|----------13--------------------|
-------------------12------|--------------------------14~---|
-------------------11r11h9-|----11/13------13/--13/15-------|
--11/--1-------------------|--------------------------------|
---------------------------|--------------------------------|
---------------------------|--------------------------------|

--------4-------2-----0---|-------------------------|
--------------------------|-------------------------|
---1/5------5/3-----1-----|--6/------6-------8~-----|
--------------------------|-------8-----8/10--------|
--------------------------|-------------------------|
--------------------------|-------------------------|

-------------16-----------------------|-----------------------------------|
---------------------------x--14/16b--|-----------------------------------|
------13-15b----15r15h13--------------|----------11b-11h9----9------------|
--------------------------------------|--11~--------------11---11---------|
--15----------------------------------|---------------------------11h9----|
--------------------------------------|-----------------------------------|

------------13~11----------------12~10~------|
------------------------------------10~10-10-|
--------11~-------11/-10------10~------------|
-----10~--------------------9~---------------|
--11~-------------11/-10-10~-----------------|
---------------------------------------------|

-----------------------14~-------------|
---------------------------------------|
-----11--------11~-13b-----13r13h11----|
-----11-----------------------------13-|
--9------11/13-------------------------|
---------------------------------------|

------------------------------14~-----------------|
--------------------------------------------------|
--------------------11----13b-----13r-13r13h11----|
--------11----11/13----13----------------------13-|
--11/13----13-------------------------------------|
--------------------------------------------------|

--------------------------------------------------|
--------------------------------------------------|
--------------------------------------------------|
--------11----------11----------11----------11----|
--11/13----13-11/13----13-11/13----13-11/13----13-|
-----------x-----------x-----------x-----------x--|

----------------------------------|
-------12b------12b------12b------|
----------11r-9----11r-9----11r11-|
----------------------------------|
----------------------------------|
----------------------------------|

-----------------------------------------------|
-----------------------------------9-12h9-12h9-|
--9~-------------------------9-11b-------------|
-----11-9---------------9h11-------------------|
----------11-10-7~-9/11------------------------|
-----------------------------------------------|

---------------------------------|-------------------------------|
---------------------------------|---------12b-------------------|
--11r11-9----11-9-----9~---------|------------11b11-9---------9--|
----------11------11-------------|--------------------11-9----9--|
---------------------------------|-------------------------11----|
---------------------------------|-------------------------------|

----------------------------------------|
----------------------------------------|
--------13~-------13~-------13~---------|
--------13~-13h15-----------13~---------|
--11/14---------------13h15-----13h15---|
----------------------------------------|

-------11/---9------11/---9------11-------13-|------------------------------|
-------11/9~-9------11/9~-9------11-------13-|------11------------------11--|
--9/11----9~---9/11----9~---9/11----11/13----|--11----------13--------------|
---------------------------------------------|----------------------10------|
---------------------------------------------|------------------13----------|
---------------------------------------------|------------------------------|

------9------9~----9~----9~----9-|--------11~----------11----11-----|
--11-----11-----11b---11----11---|--11/13-----13----------13----13~-|
----------------------15b--------|----------------------------------|
---------------------------------|----------------------------------|
---------------------------------|----------------------------------|
---------------------------------|----------------------------------|

---------9-------------------------|--------------------------------------|
--x--11----11-12h11-9----9---------|------11~-----------------------------|
----------------------11---9-------|----------11~-----------11-13-13~-13--|
-----------------------------11~---|--------------10~----13---------------|
-----------------------------------|--11--------------11------------------|
-----------------------------------|--------------------------------------|

-------------------------------|--------------------------|
------12b--12-9----------------|--16r----16h14--17b-------|
----------------11b11-9--------|--------------------------|
------------------------11-9~--|--------------------------|
-------------------------------|--------------------------|
-------------------------------|--------------------------|

--16b-----16--16b-----------------------|-------------------------11-|
------------------16b-16-14-16----14-16b|----16~--16/----------11----|
-------------------------------15-------|-------------------12-------|
----------------------------------------|----------------------------|
----------------------------------------|----------------------------|
----------------------------------------|----------------------------|

--14b--14-11--------------11-------------11-------14-11-|
--------------11--14--14b----14-11----11----14-11-------|
-----------------------------------13b------------------|
--------------------------------------------------------|
--------------------------------------------------------|
--------------------------------------------------------|

--14b14-11h14h11-----11~-----11~---11----11----11~------------|
-----------------14------14-----14----14----14-11~14----------|
-----------------------------------------------------13r13h11-|
--------------------------------------------------------------|
--------------------------------------------------------------|
--------------------------------------------------------------|

---------------11-------------------------------------------------------|
---------------11--14--11-----------------------------------------------|
------------13b------------13b13-11----11-13b13-11----11-13b13-11----11-|
--13h12h13--------------------------13b------------13-------------13b---|
------------------------------------------------------------------------|
------------------------------------------------------------------------|

------------------------------------------------------|
-----14-14----14-14-----14~-14~-----14~-14~----14~----|
--13b------13b------13b---------13b---------13b---13b-|
------------------------------------------------------|
------------------------------------------------------|
------------------------------------------------------|

--------------------------------|------------------------------------------|
--11----------------------------|------------------------------------------|
--13r--13r--13h11-------11/-13--|-----------15-15~------14~----13~------13/|
--------------------------------|------------------------------------------|
--------------------11----------|-----15/17-------15/16----15~----13/15----|
--------------------------------|------------------------------------------|

------------------13~-------|
------------------------13~-|
--12~-------13/14-----------|
----------------------------|
----------------------------|
----------------------------|

--------13----15h13----15h13----13h11----13h11----13h11----11----|
--14/15----15-------15-------15-------13-------13-------13----11-|
-----------------------------------------------------------------|
-----------------------------------------------------------------|
-----------------------------------------------------------------|
-----------------------------------------------------------------|

--x----11--11---------------------|------------15~13-------------14~12~-14---|
--x----13--11---------------------|---------13~-------------------------14---|
--------------13b-13b13h11--------|------13~---------13----------------------|
---------------------------14-----|------12~------------------11~------------|
----------------------------------|--13~----------------13h12~---------------|
----------------------------------|------------------------------------------|

--------------------------------------|
------13~-13----------------------13--|
------13~-13----13~-----13----13--13--|
------------------------------15------|
--11---------15-----15~----15---------|
--------------------------------------|

---------------------------------------------|
--------14b14r14-----------------------------|
-----------13r13-11--13b-13--11~-------------|
---------------------------------13h11-------|
---------------------------------------13h11-|
---------------------------------------------|

-------14b--11~---------------------------------|--------------------|
---------------14h11----------------------------|--------14----------|
---------------------13b13-11-13----11----------|--------13b---------|
---------------------------------13----13h------|--------------------|
------------------------------------------13h11-|--------------------|
------------------------------------------------|--------------------|

----------------------------|------15~---------16~---16~-----|
--------14--14--------------|--------------------------------|
--------13b-13b-11----------|--15----------17-----17----17---|
--------------------13--11--|--------------------------------|
----------------------------|--------------------------------|
----------------------------|--------------------------------|

--------18~---------16~-------|--------------------13~-13----|
------------------------------|--16~----------------------14/|
--19~-------19--17~-------17--|--------17/-----14~-----------|
------------------------------|------------------------------|
------------------------------|------------------------------|
------------------------------|------------------------------|

-----13----13-15h13----13-11-14b-11--------------|
--15----15----------15---------------14-11-------|
-------------------------------------------13b11-|
-------------------------------------------------|
-------------------------------------------------|
-------------------------------------------------|

--------------16b---14~-------|-------------15-13~-------------14-12-----|
------------------------16/---|--------------------------12----14-12-----|
----------13------------------|----------13-----------------12-------12--|
--13--11~---------------------|-------12--------------11-----------------|
------------------------------|----13--------------12--------------------|
------------------------------|------------------------------------------|

----------13--11----11h13-11-------13-11----|
----------11--11----11h13----11-------------|
------11---------11-------------------11-11-|
------10------------------------10----------|
--11----------------------------------------|
--------------------------------------------|

------11-11-13-11-------11-11-11-----12---|
------------------11----11-11-11-----12---|
--10-----------------11-11-11-11-----12---|
---------------------10----------10-------|
------------------------------------------|
------------------------------------------|

------------13-11-------13-11-------13-11---|
------------11-11-11----11-11-11----13-11---|
--11-----11---------------------------------|
--10--10-------------10----------10---------|
--------------------------------------------|
--------------------------------------------|

------------11-11-11----13-11----------12---|
------------11-11-11----13-11----------12---|
--11--11-11----------11-------11-11----12---|
--10--10-10-------------------10-10-10------|
--------------------------------------------|
--------------------------------------------|

------------13-11-------13-11--13-11--13-11-|
------------------11----13-11--13-11--13-11-|
--11-----11---------------------------------|
--10--10-------------10---------------------|
--------------------------------------------|
--------------------------------------------|

---13-11--13-11--13-11--13-11----11~---11~|
---13-11--13-11--13-11--13-11-11~---11~---|
------------------------------------------|
------------------------------------------|
------------------------------------------|
------------------------------------------|

--------------------------------------------------------------------------|
--------------------------------------------------------------14~14~16~16~|
--------------------------11~11~13~13~15-15-15-15-15-15-15-15-------------|
--13-13-13-13-13-13-13-13-------------------------------------------------|
--------------------------------------------------------------------------|
--------------------------------------------------------------------------|

----14~14~16-16-16-16-16-16-16-16-16~16~18-18-18-18-18-18-18-18-18-18-18-18-|
----------------------------------------------------------------------------|
----------------------------------------------------------------------------|
----------------------------------------------------------------------------|
----------------------------------------------------------------------------|
----------------------------------------------------------------------------|

--18~21~21~21~21~21~18~18~18~18~16~16~18~18~21~21~|
--------------------------------------------------|
--------------------------------------------------|
--------------------------------------------------|
--------------------------------------------------|
--------------------------------------------------|

--21-21-21-21-21-21-21-21-21-21-21-21-21-19~19~18~18~16/15/14/13/12/13/14/16~16~-|
---------------------------------------------------------------------------------|
---------------------------------------------------------------------------------|
---------------------------------------------------------------------------------|
---------------------------------------------------------------------------------|
---------------------------------------------------------------------------------|

--16-16-16-16-16-16-16-16-14-14-14-14-14-14-14-14-------------------------14~16~-|
--------------------------------------------------16-16-16-16-16-16-16-16--------|
---------------------------------------------------------------------------------|
---------------------------------------------------------------------------------|
---------------------------------------------------------------------------------|
---------------------------------------------------------------------------------|

--18-18-16-16-14-14-16~18~16~14~16~18~16-14-16-18~16~14~16~|
-----------------------------------------------------------|
-----------------------------------------------------------|
-----------------------------------------------------------|
-----------------------------------------------------------|
-----------------------------------------------------------|

--18-16-14-16-18-16-14-16-18-16-14~---------||
--------------------------------------------||
--------------------------------------------||
--------------------------------------------||
--------------------------------------------||
--------------------------------------------||


7. Come On (Let the Good Times Roll )

INTRO:

eb-7-7-7-7-7-7--7-7-7-7-7-7-|-5-5-5-5--5---------------|
Bb-8-8-8-8-8-8--8-8-8-8-8-8-|-7-7-7-7--7--7------------|
Gb--------------------------|--------------------------|
Db--------------------------|----------------2---------|
Ab--------------------------|--------------------------|
Eb--------------------------|-------------------3(b)---|

VERSE:

eb--------------------------|---------------------------|
Bb--------------------------|---------------------------|
Gb--------------------------|---------------------------|
Db-2------------------------|----------------2----------|
Ab--------------------------|---------------------------|
Eb--------------------------|-------------------3(b)----|
      People talkin but they just don't know,

eb--------------------------------|-----------------------|
Bb--------------------------------|-----------------------|
Gb--------------------------------|-----------------------|
Db-2------------------------------|------------2----------|
Ab--------------------------------|-----------------------|
Eb--------------------------------|---------------3(b)----|
     What's in my heart and why I  love you so

eb-------------------------|----------------------------|
Bb-------------------------|----------------------------|
Gb-------------------------|----------------------------|
Db-2-----------------------|-----------------2----------|
Ab-------------------------|----------------------------|
Eb-------------------------|--------------------3(b)----|
    I love you baby like a  miner loves gold

eb------------------------|---------------|-------------------|
Bb------------------------|---------------|-------------------|
Gb------------------------|---------------|-------------------|
Db-2----------------------|---------------|-------------------|
Ab------------------------|---------------|-----5-------------|
Eb------------------------|---------------|-5h7---5----3--5--0|
    Come on sugar let the  good times roll           Hey!

CHORUS
  E7#9              A13
eb---------------------|-----------------------------|
Bb----8----8--8-----7--|-----------------------------|
Gb----7----7--7--x--6--|-----6-----------------------|
Db----6----6--6--x--5--|--------------------5--------|
Ab---------------------|--------------5--7-----7--5--|
Eb---------------------|---------5--7----------------|


eb-------------------|-------------------------------|----------------------|
Bb---8----8--8----8--|-------------------------------|----------------------|
Gb---7----7--7----7--|--9p7----------9p7-------------|------6---6--6--------|
Db---6----6--6----6--|------9p7----------9p7---------|--7---5---5--5p0--5---|(b)
Ab-------------------|----------10p7---------10(b.5)-|----------------------|
Eb-0-----------------|-------------------------------|----------------------|


eb------------------------|-----------------------|----------------------|
Bb------------------------|------8----------------|----------------------|
Gb------------------------|------7----7--7--------|----------------------|
Db--7(b)----7--5--7-----5-|------6----6--6--0-----|------0h1--2----------|
Ab-------------------7----|-----------------------|----2--------2--------|
Eb------------------------|--0-----------------3--|-4-------------3------|(b.5)


eb----------------------|-----------------------|-----------------|
Bb-----3----3--3--------|-----------------------|-----8-----------|
Gb-----2----2--2--------|-----------------------|-----7--7--7-----|
Db----------------1--0--|--2--5(b)--------------|-----6--6--6-----|
Ab--2-------------------|-----------5--7--------|-----------------|
Eb----------------------|-----------------5(b)--|--0-----------0--|


eb----------------------|-------------------|------------------|
Bb----------------------|-------------------|------------------|
Gb--8--8----8-----------|-------------------|------------------|
Db--7--7----7---2-------|-------------------|------------------|
Ab-------(0)------------|--2----------------|------------------|
Eb-----------------3(b)-|-------------------|------------------|

                          So many people live in make believe...

VERSE 2:  Same riff as verse 1
	  So many people live in make believe
          That keep a lot a goin up their sleeve
	  but my love baby isn't the kind that fold
          come on baby let the good times roll...

eb----------------|-------------------------|----------------------|
Bb----------------|-------------------------|----8----------8------|
Gb----------------|-------------------------|----7----7--7--7--6---|
Db----------------|-------------------------|----6----6--6--6--5---|
Ab----------------|-------5-----------------|----------------------|
Eb----------------|--5h7-----5--7--3--5--0--|-(0)------------------|

 good times roll..             Hey!                   Hey    ba-


eb-----------------------------------|----------------------|
Bb-----------------------------------|------8---------------|
Gb---6-------------------------------|------7---------------|
Db---5----5----5----5----------------|------6--6--6--6--6---|
Ab-----------------------7-----5-----|------------------7---|
Eb-----------------------------------|-0----------------0---|

  by  let the good times roll

eb-------------------------|----------------------|
Bb-------------------------|----------------------|
Gb-------------------------|-----6----6--6--6-----|
Db--6--6--6----------------|-----5----5--5--5-----|
Ab--7--7--7--7--7--7--5h7--|--0----------------0--|
Eb-----------0-------------|----------------------|

  Wo     little    baby,                      come


eb-----------------------------------|-----------------------|--------------|
Bb-----------------------------------|------8----8--8--8-----|--------------|
Gb-----------------------------------|------7----7--7--7-----|----7-7---6---|
Db-----------------5----5----5----5--|------6----6--6--6-----|-6--6-6-6-6-5-|
Ab--0----0----0----0----0----0----0--|-----------7--7--7--7--|----7-7-7-7---|
Eb-----------------------------------|--0-----------------0--|--------------|

  on and let daddy thrill your soul                        Hey      ba-


eb---------------------|--------------------------|----------------------|
Bb---------------------|--------------------------|----------------------|
Gb-----8----8--7----6--|--------------------------|--------7-----7--0--7-|
Db-----7----7--6----5--|--5-----------5--5--------|--------6--6--6--6--6-|
Ab---------------------|--------5--7--------7--5--|--------7--7--7--7--7-|
Eb--7--7----7----------|-----7--------------------|-10--0-----0----------|

        by               Let the good times roll

                    Wah on
eb-----------------|--2--3--4--5--6--|
Bb-----------------|--2--3--4--5--6--|
Gb--3--4--5--6--7--|--2--3--4--5--6--|  solo for about 34 bars
Db--4--5--6--7--8--|--1--2--3--4--5--|
Ab--4--5--6--7--8--|--2--3--4--5--6--|
Eb--2--3--4--5--6--|-----------------|

After the solo:

eb--------------------------|-------0--0----0-----|---------7--0--------|
Bb--------------------------|---------------------|----8----0-(0)-------|
Gb-----------------7--7-----|--7----8--8----8--7--|------7--------7--6--|
Db-----------6--6--6--6--6--|--6----7--7----7--6--|------6--------6--5--|
Ab--14\0-----7--7--7--7--7--|--7------------------|---------------------|
Eb--------0-----------------|---------------------|---------------------|


eb-----------7--0--------|--0-----------------------|-----------0-----0----|
Bb-----8--------0--8--7--|--------0-----8-----0--0--|-----8--0--0--8--0----|
Gb--6-----6-----------6--|-----7--7--7--7--7--------|--7--7--7--7--7--7--6-|
Db--5----(5)-------------|-----6--6--6-----6--------|--6-----------------5-|
Ab-----------------------|--------------------------|----------------------|
Eb-----------------------|--------------------------|----------------------|

eb---------------7--0--------|--------7--6--5-----------|-----------7--10--0-|
Bb-----7(b.5)----0--0-----8--|--0--0-----------8--5-----|--------8--0------8-|
Gb-----6------6--6-----6--6--|--6--------------------0--|--7--7-----7--7-----|
Db--5---------5--------6-----|--5--------------------0--|--6--6-----6--6-----|
Ab---------------------------|--------------------------|--------------------|
Eb---------------------------|--------------------------|--------------------|

eb-------0----0-----0---------|-------------------|--------------------|
Bb-----8p0--8p0---------------|-----9p7--7--------|--------------------|
Gb---------------7-----7--7/--|--8--8----8--8--6--|--------------------|
Db--6------------------6--6/--|--7--7----7--7--5--|-----------5--7--5--|
Ab----------------------------|-------------------|--------5-----------|
Eb----------------------------|-------------------|--5--7--------------|

eb----------------------|----------------|-----7-----10--7--------|
Bb-----8----8--8--8--8--|----------------|-----0--0--0---0--7--6--|
Gb-----7----7--7--7--7--|--8----8--8--7--|--7-----7------7--6--5--|
Db-----6----6--6--6--6--|--7----7--7--6--|--6---------------------|
Ab----------------------|----------------|------------------------|
Eb--0-------------------|----------------|------------------------|

eb----7--6--5--------0--|--0-----------------0--0--|------------------------|
Bb--6----------8--5--0--|--0-----------8--0--0--0--|-----8-----0--0--8------|
Gb--5-------------------|-----7--7--7--------------|--7-----7-----------6---|
Db----------------------|-----6--6--6--------------|--------------------5---|
Ab----------------------|--------------------------|------------------------|
Eb----------------------|--------------------------|------------------------|

eb-------------------------|--0----0--------0--------|-----------7-------0--|
Bb-----8p5--8p5--8p5--8p5--|--0----------0-----8-----|-----8--------8p0-----|
Gb--6--6----6----6----6----|--6-------6-----------7--|--7-----7----------7--|
Db--5----------------------|-------------------------|--6----------------6--|
Ab-------------------------|-------------------------|----------------------|
Eb-------------------------|-------------------------|----------------------|

eb--7-----7-----7-----------|-----------------------|--------------------|
Bb-----8-----8--------------|-----9--------9--------|--------------------|
Gb-----7-----------7--7--8--|--8--8--8--8--8--8--6--|--------------------|
Db-----6-----------6--6--7--|--7--7--7-----7--7--5--|-----------7--------|
Ab--------------------------|-----------------------|--------5-----5--7--|
Eb--------------------------|-----------------------|--5--7--------------|

eb------------------------|-----------------|--------------------------|
Bb-------8----------------|-----------------|--------------------------|
Gb-------7----7--7--7-----|-----8-----------|--------------------------|
Db-------6----6--6--6-----|-----7--------5--|--------------------------|
Ab------------------------|-----x-----------|--7-----------------------|
Eb--0------------------0--|--7-----7--7-----|--0-----------------------|

                                                 A love is nice if it's

Third Verse with same riff as verses 1 and 2:

A love is nice if it's understood
It's even nicer when you're feelin good
You got me flippin like a flag on a pole
Come on sugar let the good times roll...

eb---------|-------------------------|-------------------|------------------|
Bb---------|-------------------------|--8----------------|------------------|
Gb---------|-------------------------|--7----7-----7--6--|-----6------------|
Db---------|-------------------------|-------6--6--x--5--|-----5------------|
Ab---------|-------5-----------------|----------7--7-----|-------------5----|
Eb---------|--5h7-----5--7--3--5--0--|----------------5--|--5-----5h7-----0-|
    Roll...                                  yeah        letthegoodtimes


eb-----------------------|--------------------------------|
Bb-----8-----------------|--------------------------------|
Gb-----7-----7--7--------|--------7-----------------------|
Db--------6--6--6--------|-----6--6--6--7p5---------------|
Ab--7-----7--7--7--7--7--|--7--7--7--7-------7p5--5p0--0--|
Eb--0-----0--0--0--0--0--|--0--0--0--0--------------------|
  roll


eb-------------------------|--------------------------|----------------------|
Bb-------------------------|--------------------------|--------8-----8--8--6-|
Gb--------6-----6--6-----6-|--6-----6-----6--6--6-----|--------7-----7--7----|
Db--------5-----5--5-----5-|--5-----5--5--5--5--5-----|--------6-----6--6--6-|
Ab--0--0-----0-------------|-----0--------------------|--7--7--7-----7--7--7-|
Eb--5--5--------------0----|-----------------------0--|--0--0-----0----------|
  Thrill me baby            Showpapahow good timesroll


eb---------------------------|--------------------------|--------------------|
Bb--------0------------------|--------------------------|--------------------|
Gb---------------------------|--------8-----8--8-----6--|--6-----------------|
Db--------5------------------|--------7-----7--7-----5--|--5-------------5---|
Ab--5--7-----7--5----7p5-----|--------------------------|---------5--7--5----|
Eb------------------------7--|--7--7-----7--------0-----|-----5h7------------|
  mama let me thrill yoursoul                            letthegoodtimes


                   wah on             OUTRO RIFF
eb----------------------------------|--------------12----------|
Bb-----------------8--8--8----8--8--|------12------12--12------|
Gb-----------------7--7--7----7--7--|------12----------12------|
Db-----------------6--6--6----6--6--|--14------14----------14--|
Ab-----7--7--7--7-------------------|--------------------------|
Eb--0--0--0--0--0-------------------|--------------------------|
  roll...


    OUTRO RIFF (LOWER OCTAVE)
eb----------0--------|
Bb-----0----0--0-----|
Gb-----0-------0-----|
Db--2-----2-------2--|
Ab-------------------|
Eb-------------------|


Outro:  The riff is varied and repeated, mixed in with some leads at the
twelfth fret, with wah switched on and off and various intervals, until
the lower octave of the Outro riff is repeated till fade.


8. Gypsy Eyes

Intro:
-----------------------------------------------------|
-x\----------------x-x-x\------------------x-x--5(6)-|
-x\----------------x-x-x\------------------x-x--5(6)-|
-x\--7p5-7p5-----7-x-x-x\---7p5-7p5------7-x-x-------|
-----------------------------------------------------|
-------------8(9)-------------------8(9)-------------|

----------------------------------------|
-----------------x-x--------------------|
-----------------x-x--------------------|
-7p5-7p5------7--x-x---7p5-7p5------5t7-|
----------------------------------------|
---------8(9)------------------8(9)-----|

Chorus:

guitar 1:
-------------------------------|
-5-8-8(10)-8-8(10)-8-5---------|
-----------------------5-7-5-7-|
-------------------------------|
-------------------------------|
-------------------------------|
guitar 2:
-12-15-15(17)-15-15(17)-15-12-----------------------|
------------------------------15-15(17)-15-15(17)---|
----------------------------------------------------|
----------------------------------------------------|
----------------------------------------------------|
-"well I realize that I've been hypnotized"---------|

guitar 1:
------------------------------|
-------------8----------------|
------5---7---7(9)-7p5--------|
--7-------------------7--5t7~-|
------------------------------|
-"I love you gypsy eyes"------|
guitar 2:
------------15----------------|
-----13-15-----15(17)-15p13~--|
--14--------------------------|
------------------------------|
------------------------------|
------------------------------|

guitar 1:
------------------------------|
-------------8----------------|
------5---7---7(9)-7p5--------|
--7-------------------7--5t7~-|
------------------------------|
-"I love you gypsy eyes"------|
guitar 2:
------------15----------------|
-----13-15-----15(17)-15p13~--|
--14--------------------------|
------------------------------|
------------------------------|
------------------------------|

   4x
||-----------------------||
||----5(6)---------------||
||----5(6)---------------||
||---------7p5-7p5---5t7-||
||-----------------------||
||--5--------------8-----||


Section A:

-----------------------------------|
---------------------------7(9)--7-|
---------------------------7(9)--7-|
-----5-7-7------5-7-7--------------|"Gypsy"
-----------------------------------|
-3-5-------3-5---------3-5---------|

----------------------------------12-12-12-|
--------------------------7(9)7p5-13-13-13-|
--------------------------7(9)7p5----------|
------5-7-7-----5-7-7----------------------|
-------------------------------------------|
-3-5--------3-5-------3-5------------------|

Verse 1:

   3x
||--------------------------------||
||-5-5---7-7(8)--7--5(6)----5-5---||
||-5-5---7-7(8)--7--5(6)----5-5---||
||-----------------------7------7-||
||--------------------------------||
||-5-5-----5--------5-------------||

tag riffs:
-----------------|
-8(10)--5--------|
---------7-5-----|
--------------7--|
-----------------|
-----------------|

--------------------------|
--------------------------|
---5-7-7(9)-----5-7-7(9)--|
-7---------7---7--------7-|
--------------------------|
--------------------------|


--------------------------------8----8----8----8--------|
--8-----------------------------8----8----8----8--------|
------9---7-----5-------7--5----7(9)-7(9)-7(9)-7(9)-7p5-|
----------------------7---------------------------------|
--------------------------------------------------------|
-"do you still think about me"--------------------------|

repeat Section A and verse 1 pattern with these tag riffs:

-15(17)-15(17)-15(17)-12-15-15(17)-|
-----------------------------------|
-----------------------------------|
-----------------------------------|
-----------------------------------|
-----------------------------------|

-15----------------|
-15(17)-13(14)-----|
---------------15\-|
-------------------|
-------------------|
-------------------|

-----------------------|
-15(17)-----13(14)-----|
---------14--------14\-|
-----------------------|
-----------------------|
-----------------------|

verse 3:

leadin:
-----------------|
---------8(10)~~-|
-7(9)7-5---------|
-----------------|
-----------------|
-----------------|

repeat this pattern throughout verse:
---------------------------|
-5-----5-----5--5-----5----|
-5-----5-----5--5-----5----|
-7--5--7--5--7--7--5--7--5-|
---------------------------|
-5-----5------5---------5--|

guitar 1:
---------------------------------------------------|
-8(10)-8(10)-8(10)-8(10)-8-5-8-8--8(10)-5----------|
------------------------------------------7-5(6)---|
-------------------------------------------------7-|
---------------------------------------------------|
---------------------------------------------------|

guitar 2:
-10(12)-10(12)-10(12)-10(12)--10(12)-(12)10p8----|
----------------------------------------------10-|
-------------------------------------------------|
-------------------------------------------------|
-------------------------------------------------|
-------------------------------------------------|

guitar1:
-------------------------|
-8---5-------------------|
-------7-5---------------|
-----------7-5-------5t7-|
---------------7\5-------|
---------------------5---|

-8---5-----------------|
-------8-5-------------|
-----------7-5---------|
---------------7-------|
---------------------0-|
-----------------------|

repeat intro

repeat chorus and add:

guitar 1:
--------------------------|
-------13-------13--------|
-12-14----12-14----12t14~-|
--------------------------|
--------------------------|
-"I love you gypsy eyes"--

guitar 2:
---------------------------|
---------------------------|
----------5---------5------|
--5--7--------5--7----5t7~-|
---------------------------|
---------------------------|

guitar 1:
------------------------------------------|
-------13-15--15(17)-15(17)-(17)15p13-----|
-12h14--------------------------------14~-|
------------------------------------------|
------------------------------------------|
-"I love you gypsy eyes"------------------|

guitar 2:
---------------------------|
---------------------------|
-----5-7-7(9)-7(9)-(9)7----|
-5h7--------------------5~-|
---------------------------|
---------------------------|

repeat section a with this on guitar 2:
-15------15----15-----15------15------------|
-15(17)-(17)15-15(17)-15(17)-(17)15--13-----|
----------------------------------------14~-|
--------------------------------------------|
--------------------------------------------|
--------------------------------------------|

verse 4:

------------------------------------|
------------------------------------|
------------------------------------|
-----5-7-----5-7---------5----------|
---------------------3-----5(6)-5-3-|
-3-5-----3-5-----3-5---5------------|

fade out with verse 3 figure

guitar 2 outro:

----------5-8-5---9-8-----5-8-7-----5-8-5-----5-8-5---|
------5-8-------5-----5-8-------5-8-------5-8---------|
-7(9)-------------------------------------------------|
------------------------------------------------------|
------------------------------------------------------|
------------------------------------------------------|

-----9-9-9-9-9-9-9---10-10-10-11-11-11-12-12-12-|
-/8--8-8-8-8-8-8-8------------------------------|
-/9--9-9-9-9-9-9-9---10-10-10-11-11-11-12-12-12-|
------------------------------------------------|
------------------------------------------------|
------------------------------------------------|

Lyrics:

Am
Well I realize I've been hypnotized
I love you Gypsy Eyes
I love you Gypsy Eyes

All right
Gypsy

Way up in my tree I'm sitting by my fire
wondering where in the world you may be
and knowin all the time
you're still rollin along in the country side

Oh my
Gypsy

Well I walked right on up to your revel roadside
the one that rambles on for a million miles
yes I walked down this road searching for your love
and I found some too
but I found her I ain't gonna let her go

I remember the first tiem I saw you
the tears in your eyes oh that girl's tryin' to say
oh little girl you know I could love you
but first I must make my getaway
two strange men fightin to the death over me today
I'll try and meet you by the old highway
Hey!

Well I realize I've been hypnotized
I love you Gypsy Eyes
I love you Gypsy Eyes
I love you Gypsy Eyes
I love you Gypsy Eyes

I've been searching so long
I think they made me lose the balle
down against the road my worry knees
off to the side I fall but I hear her sweet call
my gypsy eyes fine and I've been saved
Oh I've been saved
that's why I love you
I said I love you
Lord I Love You

9. Burning Of The Midnight Lamp

Intro play two times:
|-------------------|---------------||--------------------------------|
|-------------------|---------------||--------------------------------|
|-------------------|---------------||--------------------------------|
|-----3-2---0-0-----|---3-2---0-2---||-----3-2---0-0---0-2w--2-3-2-0-2|
|---3-----3-----3-3-|-------3-----3-||---1-----3-----3----------------|
|-3-----------------|-1-------------||-1------------------------------|

Verse:
     F                              Dm
	The morning is dead______     and the day is to


      B                                         E
	There noth-ing left here to greet me___   but the velvet moon


      Cmaj7                     Gmaj7
	All my lone-li-ness__    I have felt___  to - day__

      D7				F			    G
	Its little more then enough    to make a man throw himself away

And I continue to burn the midnight lamp, alone.
  [ use wah-wah until you get this point]
                                      |
e|3---------3--5-6-7-----------------7------------7-7-7-7-6--5--/3--|
B|3---------3-------------------------------------------------------|
G|4---------4--5-6-7-----------------7------------7-7-7-7-6--5--/4--|
D|------------------------------------------------------------------|
A|------------------------------------------------------------------| x2
E|------------------------------------------------------------------|

repeat intro once
repeat verse
Now the smiling portrait of you is still hanging on my frowning wall
It really doesn't bother me too much at all
It's just the ever falling dust that makes it so hard for me to see
that forgotten earring laying on the floor facing coldly towards the door

And I continue to burn the midnight lamp alone

                              |wah-wah goes on there|
------------------------------------------|
-13-13-13-13-11-13p11---------------------|
-----------------------2---2-2w-----------|
-------------------------4----------------|
------------------------------------------|
------------------------------------------|


repeat intro
repeat verse
So here I sit to face that same old fireplace
getting ready for the same old explosion going through my mind
soon enough time will tell about the circus and the wishing well
and someone who will buy and sell for me
someone who will toll my bell

And I continue to burn the midnight lamp alone

10. Rainy Day, Dream Away

Intro:  [solo in D pentatonic]


D9

Hey man, take a look out the window and see what's happening
Hey man, it's raining
It's rainin' outside man
Aw, don't worry about that
Everything's gonna be everything
We'll get into somethin' real nice you know
Sit back and groove on a rainy day
Yeah
Yeah I see what you mean brother, lay back and groove.

 Little linking phrase:  [Time - 2:09]


|-----------------------|
|-----------------------|
|-----------------------|
|--0----3---4--5--------|
|-----------------------|
|-----------------3-----|

G7         D9

Rainy day, dream away
A7      C9          G7
Let the sun take a holiday
G7                D9
=46lowers bathe and see the children play
A7           C7          G7
Lay back and groove on a rainy day.
           F9                                                    F9
=46#9
Well I can see a bunch of wet creatures, look at them on the run
    G9                                                        G9 F#9
The carnival traffic noise it sings the tune splashing up and
=469                                                           F9 F#9
Even the ducks can groove rain bathing in the park side pool
        G9
And I'm leanin' out my window sill digging everything

 Transition part:  [Play the riffs in between using=20

                    G blues scale and plenty of Wah!]


   D9 C#9  C9       Bb7  A7  G7

|--5---4---3---|---------------------------------|
|--5---4---3---|---------------------------------|
|--5---4---3---|---------------------------------|
|--4---3---2---|-----6---5---3-------------------|
|--5---4---3---|-----5---4---2-------------------|
|--------------|-----6---5---3-------------------|

             And you too.


     Bb7  A7  G7                      Bb7  A7  G7

|------------------------------------------------------------------|
|------------------------------------------------------------------|
|------------------------------------------------------------------|
|-----6---5---3------------------------6---5---3-------------------|
|-----5---4---2------------------------5---4---2-------------------|
|-----6---5---3------------------------6---5---3-------------------|


     Bb7  A7  G7                      Bb7  A7  G7 C#9    D9

|--------------------------------------------------4-----5---------|
|--------------------------------------------------4-----5---------|
|--------------------------------------------------4-----5---------|
|-----6---5---3------------------------6---5---3---3-----4---------|
|-----5---4---2------------------------5---4---2---4-----5---------|
|-----6---5---3------------------------6---5---3-------------------|

 Ending: [Once again, solo in D pentatonic]

D9
Rainy day, rain all day
Ain't no use in gettin' uptight
Just let it groove its own way
Let it drain your worries away yeah
Lay back and groove on a rainy day hey
Lay back and dream on a rainy day

11. 1983... (A Merman I Should Turn To Be)

-----------------------------------------------------------------------------|
-----------------------------------------1---------------3--3--3-------------|
-------------2-----------------------0-----0---2---------2--2--2-------------|
---------2---2-----------------0h2-------------0------------0--0---------2---|
-12\--0-------------0----0h3-----------------3--------------------0---3------|
-12\--------------0----------------------------------------------------------|

-------------------------------------------|
-------------------------------------------|
-2--0--2--------2--2-2----------------5--4-|
----------------2--2-2----5-4--5--4---5--4-|
---------0---------0-0-0--3-2--3--2---3--2-|
-----------------------0--3-2--3--2---3--2-|

------------------------------------------|
-----------3------------------------------|
--2--2--------2--2---------2---------0----|
--0--0--------0--0-----0------------------|
--------------------0------------3------3-|
------------------------------3-----------|

------------------------------------------|
------------------------------------------|
-------2-------5---4--5--4---5---4--------|
-2-------------5---4--5--4---5---4--------|
-0--0----0-----3---2--3--2---3---2--------|
------------0--3---2--3--2---3---2--------|

------------------------------------------|
---3---3--3-------------------------------|
---2---2--2--2------0--2------------2-----|
0------------0--0---------------2---------|
0-------------------------0--3------------|
------------------------------------------|

------------------------------------------|
------------------------------------------|
--------2-------5---4--5---4--5---4-------|
-2--2---2-------5---4--5---4--5---4-------|
-0--0------0-0--3---2--3---2--3---2-------|
----------------3---2--3---2--3---2-------|

-------------------------x----------------|
---3----3---3------------x----------------|
---2----2---2------------x-----6----------|
---0----0---0---0---0----x-----6----------|
-------------------------------4----------|
------------------------------------------|

Verse:

D5
------------------------------------------|
--------7---------------------------------|
------------------------------7-----------|
7------------7-----------7----------------|
5-------------------5---------------5-----|
------------------------------------------|
Hooray I awake from yesterday,         a-

C#m7
-------------------------------------------|
----------5h7p5----------------------------|
-----------------6-4--4h6p4-----------4----|
-----6----------------------6-------6------|
-4--------------------------------4------4-|
-------------------------------------------|
live but the war is here to stay

C6
-----------5----------5-------------------|
-----------5------------5-----------------|
-----------5---------------5-----------5--|
-----5-----------------------5------3-----|
-3-------------3---------------3----------|
------------------------------------------|
So my love Catherina and  me  decide to

Bm7
-------------------------------------------|
--------3h5p3---------------------3--------|
--------------2-------------2-------2------|
------4------------------4------------4----|
-2---------------------2-----------------2-|
-------------------------------------------|
take our last walk thru the noise to the sea

Bb6
-------------------3----------------------|
---------------------3--------------------|
-----------3-----------3------------------|
------3-------------------3----------3----|
--1------------1----------------1---------|
------------------------------------------|
Not to die but to be re-born........a-

Asus4
------------------------------------------|
3-----------3--------3-----3-------3------|
2-----------2--2-----2-----2-------2------|
2-----------2--------2-----2-------2--0---|
0-----------0-------------------------0---|
------------------------------------------|
way from the lands so battered and torn...

A5
---------------|
---------------|
--2------------|
--2------------|
--0------------|
----------16\--|x
          for-

A5
-----0-----------------------------------|
-----0-----------------------------------|
2----2--------------------------0--------|
2-------------------------0h2------------|
0-------------------0h3-------------3----|
-----------------------------------------|
-ever....................................

D5
------------------------|
-3-----3----------------|
-2-----2----------------|
-0-----0-----------0----|
--------------0--0----3-|
----------0-3---3-------|
               for-....
Amsus2
-----------0-----------------------------|
-----------0-----------------------1-----|
-----------2--------------------0----0---|
----2--2------2----------0h2-------------|
0----------------0--0h3------------------|
-----------------------------------------|
ever..............

D
-2--------2------------6------|
-3-----3--3------3--x--6------|
-2-----2--2---2--2--x--6------|
-0-----0--0---0--0--x--4------|
------------------------------|

I haven't got to the solo yet...I'll try to put it up later.


12. Moon, Turn the Tides ... Gently Gently Away

this song needs no guitar tabs as there is only a synthesiser. if you have a Synthesiser 
Free to make up some rubbish on it.

13. Still Raining, Still Dreaming

This Song is almost Impossible to tab. Give me a chance and later Ill Put it in.

14. House Burning Down

Ill Tab this Later.

15. All Along The Watchtower

Intro
  Moderately Q=112
 4/4
  Gtr I
  Q.   Q  E E  E    E  E  Q  E E E E   E E Q  E E E  E    E  E  Q  E E E E
|---------7-7--9-|--9--9--9----7-7-5-|-5-5-5----7-7--9-|--9--9--9----7-7-5--|
|---------7-7--9-|--9--9--9----7-7-5-|-5-5-5----7-7--9-|--9--9--9----7-7-5--|
|---------8-8--9-|--9--9--9----8-8-6-|-6-6-6----8-8--9-|--9--9--9----8-8-6--|
|---------9-9-11-|-11-11-11----9-9-7-|-7-7-7----9-9-11-|-11-11-11----9-9-7--|
|---------9-9-11-|-11-11-11----9-9-7-|-7-7-7----9-9-11-|-11-11-11----9-9-7--|
|---------7-7--9-|--9--9--9----7-7-5-|-5-5-5----7-7--9-|--9--9--9----7-7-5--|


  E E E S S S S   E  E  S     S
|-5-5-5-5-5-5-5---7--7--7s====8-|
|-5-5-5-5-5-5-5---7--7--7s====8-|
|-6-6-6-6-6-6-6---8--8--8s====9-|
|-7-7-7-7-7-7-7---9--9--9s===10-|
|-7-7-7-7-7-7-7---9--9--9s===10-|
|-5-5-5-5-5-5-5---7--7--7s====8-|
|
| Gtr II
| H         E     E  E  E
|-------------------------------|
|-------------------12-14b16----|
|---------------/13-------------|
|-------------------------------|
|-------------------------------|
|-------------------------------|


   E     E     E    S S E  E         E     S S    E  E  E. S   E     E E  S S
|--9-----9-----9----x-7-7--7---------7-----x-x-|--5--5--5--x---7-----7-7--7-7-|
|--9-----9-----9----x-7-7--7---------7-----x-x-|--5--5--5--x---7-----7-7--7-7-|
|--9-----9-----9----x-8-8--8---------8-----x-x-|--6--6--6--x---8-----8-8--8-8-|
|-11----11----11----x-9-9--9---------9-----x-x-|--7--7--7--x---9-----9-9--9-9-|
|-11----11----11----x-9-9--9---------9-----x-x-|--7--7--7--x---9-----9-9--9-9-|
|--9-----9-----9----x-7-7--7---------7-----x-x-|--5--5--5--x---7-----7-7--7-7-|
|
|              ~~~~~                                    ~~~
|  E     E     Q        E  S      S  E  a  E      E  E  Q     +E     E E  E
|----------------------------------------------|------------------------------|
|-14b16-14b16-14b16-------14pb16r14-12---------|------------------------------|
|--------------------------------------11s13---|-11-11-11----(11)\-----9-11---|
|----------------------------------------------|-------------------/11--------|
|----------------------------------------------|------------------------------|
|----------------------------------------------|------------------------------|


   E     E  E      S S S S  E           E  E
|--9-----9--9------x-7-7-7--7-----------7--x-|
|--9-----9--9------x-7-7-7--7-----------7--x-|
|--9-----9--9------x-8-8-8--8-----------8--x-|
|-11----11-11------x-9-9-9--9-----------9--x-|
|-11----11-11------x-9-9-9--9-----------9--x-|
|--9-----9--9------x-7-7-7--7-----------7--x-|
|
|           ~~~~~~~
|  E     E  Q.              S       S   E  E
|--------------------------------------------|
|--------------------------------------------|
|-11b13-11-11pb13==========11pb13-(11)r-9----|
|-----------------------------------------11-|
|--------------------------------------------|
|--------------------------------------------|


                                                 Verse
  E      E  E         S S   S  S E  E      E         H               Q.     E
|-5------5--5---------x-7---7--7-7--7------8---||---^0-------------------------|
|-5------5--5---------x-7---7--7-7--7------8---||---^5---------------2------x--|
|-6------6--6---------x-8---8--8-8--8------9---||---^6---------------4------x--|
|-7------7--7---------x-9---9--9-9--9-----10---||---^6---------------4------x--|
|-7------7--7---------x-9---9--9-9--9-----10---||---^4---------------4------x--|
|-5------5--5---------x-7---7--7-7--7------8---||--------------------0------x--|
|
|           ~~~~~~~~~~~~~~~~~~~
| |-3--|                                                   |-3-|
| S  S S E  S     +E.      +Q       E      E      a  E S S S S S S S E  E Q
|----------------------------------------------||------------------------------|
|-9h11p9---12b14-(12)-----(12)-----12b14-(12)\-||----------5h7p5---5----4------|
|--------9-------------------------------------||--------4-------6p4-4--4------|
|----------------------------------------------||------6-------------4---------|
|----------------------------------------------||-2s=4-------------------------|
|----------------------------------------------||------------------------------|


   H         E     E     E   E   H           H
|----------------------------0-|-0-------------------|
|-^2---------------4-----4---5-|-5-----------4-------|
|-^2---------------4-----4---6-|-6-----------4-------|
|-^2---------------4-----4---6-|-6-----------4-------|
|-^4---------------2-----2---4-|-4-----------2-------|
|------------------------------|---------------------|
|
|            |----6----|            |-3-|
|  Q   E S S S S S S S S E a E   Q  S S S E  Q   E E
|------------------------------|---------------------|
|------------------------------|----5h7p5------------|
|-(2)--------------4h6p4---4---|------------(4)--2-2-|
|-(2)--------2h4s6-------4-4h6-|----------6-(4)--2-2-|
|--------2h4-------------------|-4-------------------|
|------------------------------|---------------------|


  H          E     E     E E    H           H
|------------------0-----0-x-|-^0----------------------|
|-2----------------0-----0-x-|-^5----------^4----------|
|-2----------------4-----4-x-|-^6----------^4----------|
|-2----------------4-----4-x-|-^6----------^4----------|
|-4----------------2-----2-x-|-^4----------^2----------|
|----------------------------|-------------------------|
|
|      |-3-| |-3-| |-3-|
| Q.   S S S S S S S S S E E    E E T T E.  Q  S  S  E
|----------------------------|-------------------------|
|------------------------5---|------5h7p5------4h=5----|
|-2----2h4p2---------4h6p4---|------4----------4-(4)---|
|-2----------4s5s6---------6-|----6--------------------|
|----------------------------|--4-----------2----------|
|----------------------------|-------------------------|


   H    S S E   E E     H         E E E S S
|-----------------0---|-0-------------------|
|-^2----x-x-4---4-5---|-5-----------4-4-2-2-|
|-^2----x-x-4---4-6---|-6-----------4-4-2-2-|
|-^2----x-x-4---4-6---|-6-----------4-4-2-2-|
|-^4----x-x-2---2-4---|-4-----------2-2-4-4-|
|---------------------|---------------------|
|
|  H    E   S S E S S   Q  a S E. E Q   E
|---------------------|---------------------|
|---------------------|----5h7p5----4-------|
|---------------2-----|-----------4-4-------|
|-----------2h4-4-----|-----------4---------|
|-------2---------4s2-|-4---------------0---|
|---------------------|---------------------|


  H      E     E   S  S E   H     H
|-------------------------|-0--------------|
|-2-----------------------|-5-----4--------|
|-2------------9--------9-|-6-----4--------|
|-2------------9--------9-|-6-----4--------|
|-4----------------9S11---|-4-----2--------|
|-------------------------|----------------|
|
|        |-3-|
| Q.   E S S S S S Q        Q  Q  E E E E
|-0-----------------------|----------------|
|-5------------5s7s5------|----5----4------|
|-6----2-4s5s6------------|---------4-4-2--|
|-7----2-4s5s6------------|----------------|
|-------------------------|-4-----2--------|
|-------------------------|----------------|


   H        S S E   E S S   H               H        H           E   E E S S
|---------------------0-0-|-0----------------------|--------------------------|
|--2--------x-x-4---4-5-5-|-5---------------4------|-2---------------2-2-x-x--|
|--2--------x-x-4---4-6-6-|-6---------------4------|-2---------------4-4-x-x--|
|--2--------x-x-4---4-6-6-|-6---------------4------|-2---------------4-4-x-x--|
|--4--------x-x-2---2-4-4-|-4---------------2------|-4---------------2-2-x-x--|
|-------------------------|------------------------|--------------------------|
|
|                                                                      ~
|                               |-3-|
| +Q.   S S e   S S Q       S S S S S +E  E E Q  E   E S S E S S E a E Q
|-------------------------|------------------------|--------------------------|
|-----------5---5s7s5-----|---------5-(5)----------|--------------------------|
|-(2)-------4---4s6s4-----|-----4h6p4-(4)-----4--2-|-2-------------4s6-4------|
|-------4s6---------------|-4h6-----------6---4--2-|-2-4p2-------2------------|
|-------------------------|-----------------2------|-------4-2h4--------------|
|-------------------------|------------------------|--------------------------|


  H           H          Q   S E.       E E S S E
|-0-------------------|------0-0------------------|
|-5-----------4-------|--2---2-2----------4-4-4-4-|
|-6-----------4-------|--2---2-2----------4-4-4-4-|
|-6-----------4-------|--2----------------4-4-4-4-|
|-4-----------2-------|--4----------------2-2-2-2-|
|---------------------|---------------------------|
|
|     |-3-|                       |-3-|
| E E S S S E E E E E    Q   E    S S S E E S S E
|---------------------|---------------------------|
|-----5h7p5-----4-4---|-----------2h5p2-----------|
|---4-----------4-4-2-|-(2)--2----------2-1-4s6s4-|
|---6-------6---4-4-2-|-(2)--2--------------------|
|-4-----------2-------|--4------------------------|
|---------------------|---------------------------|


  H      Q   E E    S  S   S S S S S S E S S  S        S    E
|-0--------------|---------------------------------------------||
|-5------2---2-2-|-----4-------4-----4-x-4-4--4--------4----4--||
|-6------2---2-2-|-----4-------4-----4-x-4-4--4--------4----4--||
|-6------2---2-2-|-----4-------4-----4-x-4-4--4--------4----4--||
|-4------4-------|--4--2---4-4-2-4-4-2-x-2-2--2--------2----2--||
|----------------|---------------------------------------------||
|
| E E Q  E E E E    E    a S S E   S S E E    S       +S    E
|----------------|---------------------------------------------||
|-----5----4-4---|---------------------------------------------||
|-----4----4-4-2-|-(2)-------2-2-----2-2-2---12pb14==(12)r(12)-||
|---6-6----4-4-2-|-(2)-------2-2-----2-2-2---------------------||
|-4------2-------|--4----2s4-------4---------------------------||
|----------------|---------------------------------------------||


 Guitar Solo
   E     E  E      S   S  E     E   E  S S    Q             E S S   S  S E   E     E
|--0-----0--0------0---0-------------------|---------------------------------------0-|
|--5-----5--5------5---5--2-----2---2--x-x-|--4-------------4-x-x---2--2-2---2-----5-|
|--6-----6--6------6---6--2-----2---2--x-x-|--4-------------4-x-x---2--2-2---2-----6-|
|--6-----6--6------6---6--2-----2---2--x-x-|--4-------------4-x-x---2--2-2---2-----6-|
|--4-----4--4------4---4--4-----4---4--x-x-|--2-------------2-x-x---4--4-4---4-----4-|
|------------------------------------------|-----------------------------------------|
|
|  ~~~~~~~~~~~~~~~~~~~~
|  Q        E     +E      E     S S E  E      E      Q.            +Q        S  S  E
|--9--------9-----(9)-----9----------------|-----------------------------------------|
|-12b14====12b14-(12)r---12b14r12p9-9--9---|-----------------------------------------|
|------------------------12b13--------11---|-11b12-(11)b13========(11)r====(11)p9----|
|------------------------------------------|--------------------------------------11-|
|------------------------------------------|-----------------------------------------|
|------------------------------------------|-----------------------------------------|


  Q        E  S       S    S  S E      E            S S
|-0--------0--0-------0----------------------------------|
|-5--------5--5-------5----2--2-2------2------------4-4--|
|-6--------6--6-------6----2--2-2------2------------4-4--|
|-6--------6--6-------6----2--2-2------2------------4-4--|
|-4--------4--4-------4----4--4-4------4------------2-2--|
|--------------------------------------------------------|
|
| E  S  S  E  S      +S   +E.     T T  S       S    E
|--------------------------------------------------------|
|---------12-14b16==(14)-(14)---------14pb16-(14)r-12----|
|-9-11s13-------------------------x-x--------------------|
|--------------------------------------------------------|
|--------------------------------------------------------|
|--------------------------------------------------------|


   Q           E  S S S S          S      S   E         S     S
|-------------------------------------------------------x-----0-|
|--2-----------2--x-x-4-4----------4------4---4---------x-----5-|
|--2-----------2--x-x-4-4----------4------4---4---------x-----6-|
|--2-----------2--x-x-4-4----------4------4---4---------x-----6-|
|--4-----------4--x-x-2-2----------2------2---2---------x-----4-|
|---------------------------------------------------------------|
|
|         ~~~~~~~~
|  S     +E.  +Q      E    a      +E         +S    S    E
|---------------------------------------------------------------|
|-14b16-(14)-(14)---------14pb16-(14)b17====(14)r(14)-(14)b17---|
|---------------------------------------------------------------|
|---------------------------------------------------------------|
|---------------------------------------------------------------|
|---------------------------------------------------------------|


   E    E   E  S S  S    S   E   E  S S
|--0----0---0--x-x----------------------|
|--5----5---5--x-x--4----4---4---4--4-4-|
|--6----6---6--x-x--4----4---4---4--4-4-|
|--6----6---6--x-x--4----4---4---4--4-4-|
|--4----4---4--x-x--2----2---2---2--2-2-|
|---------------------------------------|
|
|  ~~~~~~~~~~~~
|  Q       +Q       E        E   E  E
|---------------------------------------|
|-14b17---(14)-----14b17r==(14)-12-14---|
|---------------------------------------|
|---------------------------------------|
|---------------------------------------|
|---------------------------------------|


   E     E E   S S S S  E      E    S S
|-------------------------------------0-|
|--2-----2-2---x-x-4-4--4------4----x-5-|
|--2-----2-2---x-x-4-4--4------4----x-6-|
|--2-----2-2---x-x-4-4--4------4----x-6-|
|--4-----4-4---x-x-2-2--2------2----x-4-|
|---------------------------------------|
|
|  E     E E   e   E    E     +S  E   S
|---------------------------------------|
|-12b14-12s0----------------------9-----|
|------------------9---11b13-(11)-------|
|------------/11------------------------|
|---------------------------------------|
|---------------------------------------|


  E  E         E    S  S    E    E    E     S   S
|-0--0---------0----x--x----x---------------------|
|-5--5---------5----x--x----x----4----4-----x---x-|
|-6--6---------6----x--x----x----4----4-----x---x-|
|-6--6---------6----x--x----x----4----4-----x---x-|
|-4--4---------4----x--x----x----2----2-----x---x-|
|-------------------------------------------------|
|
| E  S     +S  S  S S  S    S S  s S  S  S  S   S
|-9------------9--------------9-------------------|
|---12b13-(12)---12-9-------9---12-9-------(9)----|
|---------------------11b12----------12-11--9-----|
|----------------------------------------------11-|
|-------------------------------------------------|
|-------------------------------------------------|


                                       Verse
   Q            E S S  E  E    S S E    H    H
|------------------------------------||-0---------|
|--2------------2-x-4--4--4----4-4-4-||-5----4----|
|--2------------2-x-4--4--4----4-4-4-||-6----4----|
|--2------------2-x-4--4--4----4-4-4-||-6----4----|
|--4------------4-x-2--2--2----2-2-2-||-4----2----|
|------------------------------------||-----------|
|
|            ~~~~~~~~~~~~~~
|  S     +S  Q.        E.    S E   E    W
|------------------------------------||-----------|
|------------------------------------||-----------|
|-11b13-(11)-9--------(9)s==18sx-----||-----------|
|------------------------------------||-----------|
|------------------------------------||-----------|
|------------------------------------||-----------|


  H       E E E E   H          H
|-----------------|-0-------------------|
|-2---------4-4-x-|-5----------4--------|
|-2---------4-4-x-|-6----------4--------|
|-2---------4-4-x-|-6----------4--------|
|-4---------2-2-x-|-4----------2--------|
|-----------------|---------------------|
|
|             ~
|                      |-3-|
| Q  E  E E E Q     Q  S S S E E E E E
|-----------------|---------------------|
|-----------------|----5h7p5------------|
|---------4s6s4---|----------4-4-4------|
|------/6---------|----------6-4-4------|
|-----------------|------------------0--|
|-----------------|---------------------|


   H          E E     E E     H            H
|---------------------------|-0---------------------|
|--2------------4-----4-4---|-5------------4--------|
|--2------------4-----4-4---|-6------------4--------|
|--2------------4-----4-4---|-6------------4--------|
|--4------------2-----2-2---|-4------------2--------|
|---------------------------|-----------------------|
|
|                     ~~
|               |-3-|             |-3-|
|  E  E E S S E S S S E.  S   E E S S S E +E  E E E
|---------------------------|-----------------------|
|---------------------------|-----5h7p5-------4-4---|
|-------2-------4s5s6-4s==0-|-----------4-(4)-4-4-2-|
|-------2-----2-------------|---6-------------4-4-2-|
|-(0)-4---2h4---------------|-4-------------------0-|
|---------------------------|-----------------------|


   H              E E     E   E   H          H
|-------------------------------|-0-----------------|
|--2----------------4-----4---4-|-5----------4------|
|--2----------------4-----4---4-|-6----------4------|
|--2----------------4-----4---4-|-6----------4------|
|--4----------------2-----2---2-|-4----------2------|
|-------------------------------|-------------------|
|
|     |-3-|         |-3-|
| +E  S S S  E  E E S S S S S E   E E a S E. e Q  E
|-------------------------------|-------------------|
|-----2h5p2--2------------------|-----5h7p5--4-4----|
|-(2)-------(2)-----4h6p4-----4-|------------4-4----|
|-(2)-----------4s6-------4h6---|---6--------4-4----|
|-(0)---------------------------|-4---------------0-|
|-------------------------------|-------------------|


    H     E  S S E E   H          H          H           E   S S E E
|--------------------|-0------------------|---------------------------|
|---2--------4-4-4-x-|-5----------4-------|--2-----------x---4-4-4-x--|
|---2--------4-4-4-x-|-6----------4-------|--2-----------x---4-4-4-x--|
|---2--------4-4-4-x-|-6----------4-------|--2-----------x---4-4-4-x--|
|---4--------2-2-2-x-|-4----------2-------|--4-----------x---2-2-2-x--|
|--------------------|--------------------|---------------------------|
|
| <
|         ~~~
|                         |-3-|                          |3|
| a H     Q      E E   Q  S S S E E E E E   +Q   E a S S S E S S E E
|--------------------|--------------------|--------0h2p0--------------|
|--------------------|----5h7p5-----4-4---|--------------5-------5----|
|--------------------|----4---------4-4---|--------------4h6-4---4----|
|-2s4----(4)-----2---|----------6---4-4---|------------------4h6---6\-|
|------------------2-|-4----------2-----0-|-(0)-----------------------|
|--------------------|--------------------|---------------------------|


  H         H         H            E S S E E   H           H
|-0----------------|-------------------------|-0-------------------|
|-5---------4------|--2--------------4-4-4-x-|-5-----------4-------|
|-6---------4------|--2--------------4-4-4-x-|-6-----------4-------|
|-6---------4------|--2--------------4-4-4-x-|-6-----------4-------|
|-4---------2------|--4--------------2-2-2-x-|-4-----------2-------|
|------------------|-------------------------|---------------------|
|
| Q  E.  S  E Q  E    E  S S E S S E S S Q     E E a S S E Q  E E
|------------------|-------------------------|---------------------|
|-----------4-4----|-----------------5s7s5---|-----5h7p5---4-------|
|----4--(4)-4-4----|--2------------4-4s6s4---|-------------4--4-2--|
|----6---6--4-4----|--2------2-4s6-----------|---6-------6-4----2--|
|-4--------------0-|-(0)-2s4-----------------|-4-------------------|
|------------------|-------------------------|---------------------|


   H         E   E E     S S   H          H           H           E E E S S
|------------------------0-0-|-0--------------------|------------------------||
|--2-------------4-4-----5-5-|-5----------4---------|-2-------------4-4-4-4--||
|--2-------------4-4-----6-6-|-6----------4---------|-2-------------4-4-4-4--||
|--2-------------4-4-----6-6-|-6----------4---------|-2-------------4-4-4-4--||
|--4-------------2-2-----4-4-|-4----------2---------|-4-------------2-2-2-2--||
|----------------------------|----------------------|------------------------||
|
|                  |-3-|          |-3-|
| +E  S S Q  E a E S S S E     Q  S S S E E E E S S   S S E E S S E E E S S
|-----5----------------------|----------------------|------------------------||
|-----5h7p5------------------|----5h7p5---4---------|-----2-2----------------||
|-(2)--------2-----4h6p4-----|------------4-4---2---|-2---2-2-----4-6-4-4----||
|-(2)----------4s6-------6---|----------6-4---4-2-4-|-2-4-2-2-4s6-------4s9--||
|----------------------------|-4--------------------|------------------------||
|----------------------------|----------------------|------------------------||


 Guitar Solo
  Q     E  S S  E     E     E S S     E  S S E S S  S     S E    E        E
|-0-----0--0-0--------------------|---------------------------------------------|
|-5-----5--5-5--------4-----4-4-4-|---2--2-2-2-x-x--x-----x-4----4--------x-----|
|-6-----6--6-6--------4-----4-4-4-|---2--2-2-2-x-x--x-----x-4----4--------x-----|
|-6-----6--6-6--------4-----4-4-4-|---2--2-2-2-x-x--x-----x-4----4--------x-----|
|-4-----4--4-4--------2-----2-2-2-|---4--4-4-4-x-x--x-----x-2----2--------x-----|
|---------------------------------|---------------------------------------------|
|
|                           ~~~~~~~~~~~~~
| S S E E.   S  S  S  E     Q        +Q      Q      E.        S  S     S  E
|---------------------------------|-----------------9---------9--9-----9--9-----|
|---------------------------------|----------------12b14========12pb14---12pb14-|
|-9-9-9-9----9s11-11-11b13--------|---------------------------------------------|
|--------------------------11-----|-(11)----------------------------------------|
|---------------------------------|---------------------------------------------|
|---------------------------------|---------------------------------------------|


   Q                  Q         E      E     E S S
|--0------------------0----------------------------|
|--5------------------5---------4------4-----4-x-2-|
|--6------------------6---------4------4-----4-x-2-|
|--6------------------6---------4------4-----4-x-2-|
|--4------------------4---------2------2-----2-x-4-|
|--------------------------------------------------|
|
|                                      ~~~~~~
|  T      +T    S  E  E  E      E      Q.
|--9------(9)--------------------------------------|
|-12pb14-(12)r(12)-9-------------------------------|
|--------------------11-11pb13-11pb13-11pb13-------|
|--------------------------------------------------|
|--------------------------------------------------|
|--------------------------------------------------|


    E  E E  S      S    S  S  E  E         S S
|--------------------------------------------0-|
|---2--2-2--x------x----4--4--4--4---------x-2-|
|---2--2-2--x------x----4--4--4--4---------x-3-|
|---2--2-2--x------x----4--4--4--4---------x-3-|
|---4--4-4--x------x----2--2--2--2---------x-1-|
|----------------------------------------------|
|
|   ~~~~
|  +Q.      S     +S    S  S  E  S     +S  E
|----------------------------------------------|
|------------------------------------------9---|
|-(11)-----11b13-(11)r(11)-9----11b13-(11)-----|
|----------------------------11----------------|
|----------------------------------------------|
|----------------------------------------------|


  E     E  E  S S  S     S E   E  E                 E   E  E  S     S  S    S  E  E  S  S
|-0-----0--0--x---------------------------------|---------------------------------------0-|
|-2-----2--2--x-4--4-----4-4---4--x-------------|---2---2--2--x-----x--4----4--4--4--x--5-|
|-3-----3--3--x-4--4-----4-4---4--x-------------|---2---2--2--x-----x--4----4--4--4--x--6-|
|-3-----3--3--x-4--4-----4-4---4--x-------------|---2---2--2--x-----x--4----4--4--4--x--6-|
|-1-----1--1--x-2--2-----2-2---2--x-------------|---4---4--4--x-----x--2----2--2--2--x--4-|
|-----------------------------------------------|-----------------------------------------|
|
|                                                                                 ~~~
| E  a  E  E  E    Q          +E.    T      +T      E   E  E  E        E       E  E.    S
|-9-------12-14---14b16======(14)---14pb16-(14)r|=(14)-12-14-14pb16---12b14---12-------12-|
|---12s14---------------------------------------|--------------------------------14-------|
|-----------------------------------------------|-----------------------------------------|
|-----------------------------------------------|-----------------------------------------|
|-----------------------------------------------|-----------------------------------------|
|-----------------------------------------------|-----------------------------------------|


   E         E   E          S   S  E    S S E     S S
|--0---------0---0----------0---0---------------------|
|--5---------5---5----------5---5--4----4-4-4-----x-x-|
|--6---------6---6----------6---6--4----4-4-4-----x-x-|
|--6---------6---6----------6---6--4----4-4-4-----x-x-|
|--4---------4---4----------4---4--2----2-2-2-----x-x-|
|-----------------------------------------------------|
|
|                                  ~~~~~
|                |-----3------|
|  S     +E.     E   +E       E    Q.          a  E
|---------------------------------------------12------|
|-14b16-(14)r==(14)-(14)b16-------14b16----------14---|
|-(0)-------------------------------------------------|
|-----------------------------------------------------|
|-----------------------------------------------------|
|-----------------------------------------------------|


   S    S  E  E           S S     S S E   Q
|----------------------------------------------||
|--2----2--2--2-----------x-x-----x-4-4---4----||
|--2----2--2--2-----------x-x-----x-4-4---4----||
|--2----2--2--2-----------x-x-----x-4-4---4----||
|--4----4--4--4-----------x-x-----x-2-2---2----||
|----------------------------------------------||
|
|  E       E  S       S   E    a  Q       Q
|----------------------------------------------||
|-14b16---14-14pb16r(14)-14--------------------||
|-----------------------------12s13-----(13)\--||
|----------------------------------------------||
|----------------------------------------------||
|----------------------------------------------||


  Gtr I
  H     H      E S S Q  E S S Q     H     H         H     S S E    Q
|-0----------|-------------------|--0------------|-----------------------|
|-5-----4----|-2-2-2-2----4-4-4--|--5-----4------|--2-------4-4----4-----|
|-6-----4----|-2-2-2-2----4-4-4--|--6-----4------|--2-------4-4----4-----|
|-6-----4----|-2-2-2-2----4-4-4--|--6-----4------|--2-------4-4----4-----|
|-4-----2----|-4-4-4-4----2-2-2--|--4-----2------|--4-------2-2----2-----|
|------------|-------------------|---------------|-----------------------|
|
| Gtr III
|                                                   ~~~~~~~~
| H     H      H        Q     Q     H.        Q     H     E   E a  E. S
|------------|-------------------|---------------|-----------------------|
|------15s===|=2-----------------|---------------|-----------------------|
|------15s===|=2-----------------|---------------|--------------9s11--9--|
|------15s===|=2--------------4s=|=11--------11s=|=14----14--------------|
|------------|-------------------|---------------|-----------------------|
|------------|-------------------|---------------|-----------------------|


   H     H         Q  E S S   E  E    Q
|--0------------|------------------------|
|--5-----4------|--2--2-2-2------4----4--|
|--6-----4------|--2--2-2-2------4----4--|
|--6-----4------|--2--2-2-2------4----4--|
|--4-----2------|--4--4-4-4------2----2--|
|---------------|------------------------|
|
|  ~~~             ~~~~~~~~~~~~~~
|  H.        Q     H         +E  E a  Q
|---------------|------------------------|
|-----------11s=|=14--------(14)---------|
|---------------|------------------9s11--|
|-11--------11s=|=14--------(14)---------|
|---------------|------------------------|
|---------------|------------------------|


   H        H          Q   E. S E  S S S S E
|--0----------------|-------------------------||
|--5--------4-------|--2---2--4-4--4-4-4-4-4--||
|--6--------4-------|--2---2--4-4--4-4-4-4-4--||
|--6--------4-------|--2---2--4-4--4-4-4-4-4--||
|--4--------2-------|--4---4--2-2--2-2-2-2-2--||
|-------------------|-------------------------||
|
|     ~~~~~~~~~
|  E  Q.    E. S Q     Q   Q    E  E   Q
|-------------------|-------------------------||
|-------------------|-------------------------||
|-11-13----11--x-9--|-11\---------/x----------||
|-------------------|-------------/x----------||
|-------------------|-------------------------||
|-------------------|-------------------------||


   H                          H
|--0-------------------------------------------------|
|--5--------------------------4----------------------|
|--6--------------------------4----------------------|
|--6--------------------------4----------------------|
|--4--------------------------2----------------------|
|----------------------------------------------------|
| W/wah and echo
|  S  S  S  S  a  E  S  S  a  E  S  S  a  S  S  S  S
|-12-12-12-12-12s14-14-14-14s16-16-16-16s19-19-19-19-|
|----------------------------------------------------|
|--9--9--9--9--9s11-11-11-11s13-13-13-13s16-16-16-16-|
|----------------------------------------------------|
|----------------------------------------------------|
|----------------------------------------------------|


   H      S S S S S S  S    S
|-----------------------------|
|--2------x-x-4-4-4-4--4----x-|
|--2------x-x-4-4-4-4--4----x-|
|--2------x-x-4-4-4-4--4----x-|
|--4------x-x-2-2-2-2--2----x-|
|-----------------------------|
|
|  Q   Q  Q       E    S    S
|-19\-------------------------|
|---------------------------9-|
|-16\-----------------11b13---|
|-----------------------------|
|-----------------------------|
|-----------------------------|


  H                      H
|-0---------------------------------------------|
|-5----------------------4----------------------|
|-6----------------------4----------------------|
|-6----------------------4----------------------|
|-4----------------------2----------------------|
|-----------------------------------------------|
|
| S  S S  S S  S    S S  S S  S     S S  S S  S
|-9----9----9---------9-------------------------|
|---12---12---------9---12-9--------------------|
|-------------11b13----------11b13-11-9----9-11-|
|---------------------------------------11------|
|-----------------------------------------------|
|-----------------------------------------------|


   H               E S S  E    E
|-----------------------------------|
|--2-----------------4-4--4----4----|
|--2-----------------4-4--4----4----|
|--2-----------------4-4--4----4----|
|--4-----------------2-2--2----2----|
|-----------------------------------|
|
|              ~~~~
|  E     +E    Q   Q      E.      S
|-----------------------------------|
|------------------------12b14---12-|
|-11b13-(11)-(11)-------------------|
|-----------------------------------|
|-----------------------------------|
|-----------------------------------|


  H                   H
|-0-------------------------------------|
|-5-------------------4-----------------|
|-6-------------------4-----------------|
|-6-------------------4-----------------|
|-4-------------------2-----------------|
|---------------------------------------|
|
| S  S S  S S S  S S  S S S  S S  S S S
|-9----9-11-9------9-11-9------9-11-9---|
|---12--------9-12--------9-12--------9-|
|---------------------------------------|
|---------------------------------------|
|---------------------------------------|
|---------------------------------------|


   H                     E    S     S E E
|-----------------------------------------|
|--2--------------------------4-----4-4-4-|
|--2--------------------------4-----4-4-4-|
|--2--------------------------4-----4-4-4-|
|--4--------------------------2-----2-2-2-|
|-----------------------------------------|
|
|  E    S S S  S    S S  S S  S     S E E
|-------9---9---------9-------------------|
|-12b14---9---------9---12-9--------------|
|-------------11b13----------11b13-11-9---|
|-----------------------------------------|
|-----------------------------------------|
|-----------------------------------------|


  H               Q           Q
|-0------------------------------|
|-5---------------4-----------4--|
|-6---------------4-----------4--|
|-6---------------4-----------4--|
|-4---------------2-----------2--|
|--------------------------------|
|
|                 ~~~~~~~~~~~~
| E  Q        E   E      +Q.
|-------------9---9--------------|
|---12b14===(12)-12pb14-(12)r----|
|--------------------------------|
|--------------------------------|
|--------------------------------|
|--------------------------------|


   S     E  S      E       S   S E S S E   E
|----------------------------------------------||
|--2-----2--2------2-------2---2-2-4-4-4---x---||
|--2-----2--2------2-------2---2-2-4-4-4---x---||
|--2-----2--2------2-------2---2-2-4-4-4---x---||
|--4-----4--4------4-------4---4-4-2-2-2---x---||
|----------------------------------------------||
|
|  E.       S      E      +E     Q     S S S S
|-11-------11-----11-----(11)----------x-x-x-x-||
|-14b16====14pb16-14pb16-(14)r---------x-x-x-x-||
|--------------------------------------x-x-x-x-||
|----------------------------------------------||
|----------------------------------------------||
|----------------------------------------------||


   E S S  E  S S  S S  S  S E   S  S
|--0-0-0--0--x------------------------|
|--5-5-5--5--x-4--4-4--4--4-4---x--x--|
|--6-6-6--6--x-4--4-4--4--4-4---x--x--|
|--6-6-6--6--x-4--4-4--4--4-4---x--x--|
|--4-4-4--4--x-2--2-2--2--2-2---x--x--|
|-------------------------------------|
|Wah and echo off
|  E S S +E  E    E    E    S S S  S
|-11-9-9-(9)-9--------(7)---9-7-7-(0)-|
|--9-9-9-(9)-9---/7----7----7-7-7-(0)-|
|----------------/8-------------------|
|-------------------------------------|
|-------------------------------------|
|-------------------------------------|


    E  E   E S S    E       S  S  E  S  S
|------------------------------------------|
|---2--2---2-2-2----4-------4--4--4--x--x--|
|---2--2---2-2-2----4-------4--4--4--x--x--|
|---2--2---2-2-2----4-------4--4--4--x--x--|
|---4--4---4-4-4----2-------2--2--2--x--x--|
|------------------------------------------|
|
|   E  E a E S S a  S   S   S  S  e  S  S
|-/(5)-5-----------------------0-----------|
|--/5--5-5s8-8-8-8s10--10--10-10-13\---(0)-|
|--/6----6s9-9-9-9s11-(11)-11-11-14\-------|
|------------------------------------------|
|------------------------------------------|
|------------------------------------------|


    E E  E    S S   E  E E   S  S    E E E S S S S S S E   S S
|---0-0--0----0-0-----------------|------------------------0-0-|
|---5-5--5----5-5---4--4-4---x--x-|--2-2-2-x-4-4-4-4-4-4---5-5-|
|---6-6--6----6-6---4--4-4---x--x-|--2-2-2-x-4-4-4-4-4-4---6-6-|
|---6-6--6----6-6---4--4-4---x--x-|--2-2-2-x-4-4-4-4-4-4---6-6-|
|---4-4--4----4-4---2--2-2---x--x-|--4-4-4-x-2-2-2-2-2-2---4-4-|
|---------------------------------|----------------------------|
|
|   E E  S  S e     E  E S S e       E E E S S S S S S S S S S
|-------11--9-9---/(7)-7-9-7-7\---|----5-5-x-x-x-x-x-x-x-x-x-x-|
|-----9-(9)--------/7--7-7-7-7\---|----5-5-x-x-x-x-x-x-x-x-x-x-|
|------------------/7-------------|-/6-------x-x-x-x-x-x-x-x-x-|
|-/11-----------------------------|----------x-x-x-x-x-x-x-x-x-|
|---------------------------------|----------x-x-x-x-x-x-x-x-x-|
|---------------------------------|----------x-x-x-x-x-x-x-x-x-|


    E E  E   S  S    E S S E   S  S
|---0-0--0---0--0---------------------|
|---5-5--5---5--5----4-4-4-4---2--2---|
|---6-6--6---6--6----4-4-4-4---2--2---|
|---6-6--6---6--6----4-4-4-4---2--2---|
|---4-4--4---4--4----2-2-2-2----------|
|-------------------------------------|
|
|   E E  S S S  S    E E   S S S  S
|-----9-11-9-9-(9)\----7---9-7-7-(7)\-|
|-----9------9-(9)\--------7-7-7-(7)\-|
|-------------------/8----------------|
|-/11---------------------------------|
|-------------------------------------|
|-------------------------------------|


   E E   E   S  S   S   S     E  E    S  S
|------------------------------------------|
|--2-2---2---2--2---4---4-----4--4----x--x-|
|--2-2---2---2--2---4---4-----4--4----x--x-|
|--2-2---2---2--2---4---4-----4--4----x--x-|
|--4-4---4---4--4---2---2-----2--2----x--x-|
|------------------------------------------|
|
|  E E a S S S  S  +S   S  a  E  S S  S  S
|----5---------------------------x-x-(0)-x-|
|----5-5s8-8-8s10-(10)-10-10s13\-x-x-(0)-x-|
|-/6---6s9-9-9s11-(11)-11-11s14\-----------|
|-/7---------------------------------------|
|------------------------------------------|
|------------------------------------------|


   E             E        















   E            E             S      S      E            S    S  S     S S S E
|------------------------------------------------------------------------------||
|--2------------2-------------2------2-------------------4----4--4-----4-4-4-x-||
|--2------------2-------------2------2-------------------4----4--4-----4-4-4-x-||
|--2------------2-------------2------2-------------------4----4--4-----4-4-4-x-||
|--4------------4-------------4------4-------------------2----2--2-----2-2-2-x-||
|------------------------------------------------------------------------------||
|
|  S      +S    S      S      S      S      S      +S    E       Q           E
|-12-----(12)--14-----14-----14-----14-----14-----(14)--19------17tr16---------||
|-15pb17-(15)r-17b19==17pb19-17pb19-17pb19-17pb19-(17)r-16b18------------------||
|------------------------------------------------------------------------------||
|------------------------------------------------------------------------------||
|------------------------------------------------------------------------------||
|------------------------------------------------------------------------------||


 Verse
  H    E   Q.         H        E      S S E    E    H         H
|-0-----------------|----------------------------|--0--------------|
|-5----4---4--------|-2---------------4-4-4------|--5---------4----|
|-6----4---4--------|-2---------------4-4-4------|--6---------4----|
|-6----4---4--------|-2---------------4-4-4----6-|--6---------4----|
|-4----2---2--------|-4---------------2-2-2----4-|--4---------2----|
|-------------------|----------------------------|-----------------|
|
| H    S S E  E S S   Q  E S S T T E.     S E.      Q  a S E. H
|-------------------|----------------------------|-----------------|
|--------4-4--4-----|----------------------------|-----5h7p5-------|
|--------4-4--4-----|----------------------------|-----------------|
|--------4-4--4-----|----------------------------|-----------------|
|-4----2------------|----------2h4p2-------------|-/4--------------|
|---------------2h4-|-2----2h4------------2-0----|-----------------|


  H        E   S S E  E   H          H            H         E     S S E E
|-----------------------|-0-------------------|---------------------------|
|-2------------4-4-4----|-5----------4--------|---2---------------4-4-4---|
|-2------------4-4-4----|-6----------4--------|---2---------------4-4-4---|
|-2------------4-4-4--6-|-6----------4--------|---2---------------4-4-4-6-|
|-4------------2-2-2--4-|-4----------2--------|---4---------------2-2-2-4-|
|-----------------------|---------------------|---------------------------|
|
|                                                           |-3-|
| Q  S E S S S S S Q      E S S E. S E Q  S S   a E E e S S S S S S S Q
|----0---0--------------|---------------------|-------5-------------------|
|----5h7-0-----5s7s5\---|-------5--5----------|-----------7-------5s7s5---|
|----6---------4s6s4\---|-----4-4--4---4--4-4-|-----2---6---------4s6s4---|
|----------5s6----------|---6----------4--4-4-|-----2-------4h5h6---------|
|-----------------------|-4----------2--------|-2s4-----------------------|
|-----------------------|---------------------|---------------------------|


  H             H           H           E S S  E  E   H        H
|-0-----------------------|-------------------------|-0-----------------|
|-5-------------4---------|-2-------------4-4--4----|-5--------4--------|
|-6-------------4---------|-2-------------4-4--4----|-6--------4--------|
|-6-------------4---------|-2-------------4-4--4--6-|-6--------4--------|
|-4-------------2---------|-4-------------2-2--2--4-|-4--------2--------|
|-------------------------|-------------------------|-------------------|
|
| E E a S S S S E E E S S   S S S S E E Q      Q      Q  E S S E  Q   E
|-------------------------|-------------------------|----4--------------|
|-----5h7p5-------4-------|-------------------(x)---|-5-----------------|
|---4-------4-x---4-4-----|-------------------(x)---|-4----4-4-4-(4)--4-|
|---6-----------4---4-0h4-|-4-4-4-4-4---------(x)---|-6----6-6-4--4---4-|
|-4-----------------------|-x-x-x-x-----------------|-4-----------------|
|-------------------------|-2-2-2-2-----------------|-------------------|


  H        S S S S E E   H             H
|----------------------|-0-----------------------|
|-2--------x-x-4-4-4---|-5-------------4---------|
|-2--------x-x-4-4-4---|-6-------------4---------|
|-2--------x-x-4-4-4-6-|-6-------------4---------|
|-4--------x-x-2-2-2-4-|-4-------------2---------|
|----------------------|-------------------------|
|
| Q  E S S S S S S Q     E E a S S S S E E E S S
|------------x---------|-------------------------|
|----5-5-5-x-x-5s6s5---|-----5h7p5---------------|
|-2--6-6-6-x---4s7s4---|-----------4---4-4-4---4-|
|-2--------------------|---6---------6-4-4-4-4---|
|----------------------|-4-----------------------|
|----------------------|-------------------------|


  H              E    S S E  E     H           H
|--------------------------------|-0-----------------------|
|-2-------------------4-4-4------|-5-----------4-----------|
|-2-------------------4-4-4------|-6-----------4-----------|
|-2-------------------4-4-4--6---|-6-----------4-----------|
|-4-------------------2-2-2--4---|-4-----------2-----------|
|--------------------------------|-------------------------|
|
|     |-3-|
| E E S S S S S  E  a E   E.   S   E E S S S S E E  E  S S
|-----2h5p2----------------------|-------------------------|
|-2---------5-------5s7s==5------|-----7p5---5-------------|
|-2---------4h6-----4s6s==4----0-|---4-4-----4------4----2-|
|---2-----------(6)--------------|---6-----6-----4-(4)-4---|
|--------------------------------|-4-----------2-----------|
|--------------------------------|-------------------------|


  H               E S S Q      H          H
|----------------------------|-0--------------------|
|-2-----------------4-4-4----|-5----------4---------|
|-2-----------------4-4-4----|-6----------4---------|
|-2-----------------4-4-4----|-6----------4---------|
|-4-----------------2-2-2----|-4----------2---------|
|----------------------------|----------------------|
|
| |-3-|
| S S S S S E S S E S S E. S   Q  S S S S E E E S S
|----------------------------|----------------------|
|-------------------5s7s5--x-|----7p5---5-----------|
|-----------------4-4s6s4--x-|----4---4-------4-2-2-|
|-2h4p2-----2-4s6------------|-6------------4-4-2---|
|-------2s4------------------|-4----------2---------|
|----------------------------|----------------------|


   S S S S S  S S S S S E   S S E
|-----------------------------------||
|----2-----2------2-x-4-4---4-4-4---||
|----2-----2------2-x-4-4---4-4-4---||
|----2-----2------2-x-4-4---4-4-4---||
|--4-4-4-4-4--4-4-4-x-2-2---2-2-2---||
|-----------------------------------||
|
|  S S S S E.     S E   S S S S S S
|-/5-5-5-5-5------5-5---0-0-x-0-0-0-||
|--0-0-0-0-0------0-0---0-0-x-0-0-0-||
|-----------------------0-----------||
|-----------------------------------||
|-----------------------------------||
|-----------------------------------||


Voodoo Child (Slight Return)

INTRO:(With Wah)
         ^^^                         ^^^           ^^^
e|-------x-x---------------|---------x-x-----------x-x-|
B|-------x-x---------------|---------x-x-----------x-x-|
G|-x-x-x-x-x--x-x-x-x-x--x-|-x-x-x-x-x-x--x-x-x-x--x-x-|
D|-x-x-x------x-x-x-x-x--x-|-x-x-x-x------x-x-x-x------|
A|-x-x-x------x-x-x-x-x--x-|-x-x-x-x------x-x-x-x------|
E|-x-x-x------x-x-x-x-x--x-|-x-x-x-x------x-x-x-x------|
           ^^^            ^         ^                  ^^^
e|---------x-x------------x-|-------x------------------x-x|
B|---------x-x------------x-|-------x------------------x-x|
G|-x-x-x-x-x-x--x-x-x-x-x-x-|-x-x-x-x--x-x-x-x-x-x-x-x-x-x|
D|-x-x-x-x------x-x-x-x-x-x-|-x-x-x----x-x-x-x-x-x-x-x-x-x|
A|-x-x-x-x------x-x-x-x-x-x-|-x-x-x----x-x-x-x-x-x-x-x-x-x|
E|-x-x-x-x------x-x-x-x-x-x-|-x-x-x----x-x-x-x-x-x-x-x-x-x|

00:10
     ^^        ^^               ^^          ^^       ^^  ^  ^^
e|------------------------------------|---------------------------|
B|------------------------------------|---------------------------|
G|------------------------------------|---------------------------|
D|12/14\12---------12-----------------|--12/14\12--------14-14p12-|
A|----------12/14-----10--10-10/12~~~\|-----------12/14-----------|
E|------------------------------------|---------------------------|
     ^      ^^        ^^               ^^          ^^       ^^     ^^
e|-------------------------------------------|---------------------------|
B|-------------------------------------------|---------------------------|
G|-x-x-x-------------------------------------|---------------------------|
D|-x-x-x-12/14\12---------12-----------------|--12/14\12---------12/14~~\|
A|-x-x-x-----------12/14-----10--10-10/12~~~\|-----------12/14-----------|
E|-x-x-x-------------------------------------|---------------------------|

      ^^        ^^               ^^           ^^       ^^  ^  ^^
e|---------------------------------------|--------------------------|
B|---------------------------------------|--------------------------|
G|---------------------------------------|--------------------------|
D|-12/14\12---------12-------------------|-12/14\12--------14-14p12-|
A|-----------12/14-----10--10-10/12p10---|----------12/14-----------|
E|-------------------------------------12|--------------------------|
     ^      ^^        ^^              ^^
e|----------------------------------------|
B|----------------------------------------|
G|-x-x-x----------------------------------|
D|-x-x-x-12/14\12---------12--------------|
A|-x-x-x-----------12/14-----10--10-10/12\|
E|-x-x-x----------------------------------|
      ^^       ^^       ^^ ^^ ^^  ^^    *(Wah off)
e|----------------------------------------------|
B|----------------------------------------------|
G|-------------------14b(16)(16)(16)r14p12-----0|
D|-12/14\12-------12-----------------------14\22|
A|----------12/14------------------------------2|
E|---------------------------------------------0|

00:32
e|--------------------------|---------------------0~~~~~~~----|
B|--------------------------|---------------------------------|
G|-0---0-2b(4)r2p0-0--------|-0---0---0-2b(4)r2p0x---0--0-----|
D|-2---2-----------2------2-|-2---2---2--------------2--2-----|
A|-2---2-----------2--------|-2---2---2--------------2--2-----|
E|-0---0-----------0-0h3b---|-0---0---0--------------0--0--3b-|

e|-------------------------------|----------------------------|
B|-------------------------------|----------------------------|
G|-14b(16)--14--14b(16)r14p12~~~~|----0--0--0-2b(4)r2p0----0-0|
D|-------------------------------|14\22--2--2--------------2-2|
A|-------------------------------|----2--2--2--------------2-2|
E|-------------------------------|----0--0--0--------------0-0|
        *(Turn on the Wah pedal)
        ^^  ^^  ^^  ^^  ^^  ^^  ^^ ^^
e|----------------------------------------|
B|----------------------------------------|
G|-2b(4)~~~~~~~~~~~~~~~~~~~~~~~~~~~~~r2---|
D|----------------------------------------|
A|----------------------------------------|
E|----------------------------------------|

e|------------------------------------|
B|------------------------------------|
G|-2b(4)r2p0---0----0--0---------0--0-|
D|-------------2----2--2------2--2--2-|
A|-------------2----2--2---------2--2-|
E|-------------0----0--0--3b-----0--0-|

(sorry, could only fit it in this way... it is only one bar)
-------12--------------------------------------------------------------------|
15b(17)~~15b(17)r15p12--------------15---------------------------------------|
-----------------------14p12-14b(16)~~14b(16)r14p12-14b(16)-14-14b(16)r14p12-|
-----------------------------------------------------------------------------|
-----------------------------------------------------------------------------|
-----------------------------------------------------------------------------|

00:54
e|-------------------------------x3-3--|-----------------------------|
B|-------------------------------x3-3--|-----------------------------|
G|~~-----0-0-------2p0-0-0-------x-----|---------------2bp0-0-0------|
D|---14\22-2----2~-----2-2-------x-----|----2------2-2------2-2------|
A|-------2-2-----------2-2-------x-----|--------------------2-2------|
E|-------0-0-3b--------0-0-3b3p0-x-----|-3b---0h3b----------0-0-3b-0-|

Verse 1
e|----------------------------------------|
B|----------------------------------------|
G|----------------------0-----------------|
D|-------- -----0---2-------2------0---2--|
A|-----2-2-2-------------------2----------|
E|----------------------------------------|
   "Well I'll Stand Up Next To a Moun-tian"

e|-------------------------------------------------|
B|-------------------------------------------------|
G|-0------------------------------------2b(4)r2p0-0|
D|-2--------------2p0----2-----2p0----------------2|
A|-2--------2-------------------------2-----------2|
E|-0-3b-0-----------------------------------------0|
          "An' Chop It Down With The Edge of my hand."

e|----------------12~~~~---12~~~~---------------|
B|----------------15b(17)-15b(17)---------------|
G|-0---0----------------------------0---0-------|
D|-2---2-----2----------------------2---2-------|
A|-2---2----------------------------2---2-------|
E|-0---0--3b---0--------------------0---0--3b-0-|

e|------------------------------|------------------------------|
B|------------------------------|------------------------------|
G|-0---2b(4)2p0h2--0---0-0------|-0---2b(4)2p0h2--0---0-0------|
D|-2---------------2---2-2----2-|-2---------------2---2-2----2-|
A|-2---------------2---2-2------|-2---------------2---2-2------|
E|-0---------------0---0-0-3b---|-0---------------0---0-0-3b---|

e|------12—-15b(17)(17)r15p12-15b(17)(17)r15p12-15b-15b(17)|
B|-/15-----------------------------------------------------|
G|---------------------------------------------------------|
D|---------------------------------------------------------|
A|---------------------------------------------------------|
E|---------------------------------------------------------|
 "Well I'll   Stand      Up   Next     To    a  Moun-tian"

e|----------------------------------------------------|
B|----------12—14p12-15b(17)(17)r15p12----------------|
G|--------------------------------------14----12b-----|
D|------------------------------------------14-----14\|
A|----------------------------------------------------|
E|-0-3b-0---------------------------------------------|
           "An'ChopIt  Down   With The Edge of my hand."

e|-------------------|--------------------|
B|-------------------|--------------------|
G|-------------------|--------------------|
D|-------------------|-----------2--------|
A|-------------3/7\3-|-----------2--------|
E|-0-0-3b-0-0--3/7\3-|-0--0-0-3b-0        |->Let Ring

e|-------------------|-------------------|
B|-------------------|-------------------|
G|-4-4-4-4-4-4-4-4-4-|-3-3-3-3-3-3-3-3-3-|
D|-3-3-3-3-3-3-3-3-3-|-2-2-2-2-2-2-2-2-2-|
A|-4-4-4-4-4-4-4-4-4-|-3-3-3-3-3-3-3-3-3-|
E|-------------------|-------------------|
"I'll pick up all the pieces make an island,
  might even raise a little sand"

e|--------------------------------|----------------|
B|--------------------------------|----------------|
G|-----------------0--2b(4)r2p0h2-|----0-0-0-0-0-0-|
D|-2---2--2-----2--2--------------|-2--2-2-2-2-2-2-|
A|-2---2--2-----2--2--------------|-2--2-2-2-2-2-2-|
E|-0---0--0--3b-0--0--------------|-0--0-0-0-0-0-0-|
                              "Yeah"

e|-----------------|-----------------|---------------|----------------|
B|-----------------|-----------------|---------------|----------------|
G|-4-4-4-4-4-4-4-4-|-6-6-6-6-6-6-6-6-|-----9x---9p7--|----------------|
D|-3-3-3-3-3-3-3-3-|-5-5-5-5-5-5-5-5-|-9-9-9x-9-9--9-|-9-9------------|
A|-5-5-5-5-5-5-5-5-|-7-7-7-7-7-7-7-7-|-9-9-9x-9-9--9-|-9-9------------|
E|-3-3-3-3-3-3-3-3-|-5-5-5-5-5-5-5-5-|-7-7-7x-7-7--7-|-7-7\0-0h3bp0-0-|
"Cos Im a Voodoo Child, Lord Knows Im a Voodoo Child, Babe"

SOLO 1:54
e|--------------------------------|
B|-15b(17)~~(17)r15p12-15-15b(17)-|
G|--------------------------------|
D|--------------------------------|
A|--------------------------------|
E|--------------------------------|
                 (Pick verrrrrrrrrrry fast)
e|--------------------------------------------------|
B|-15b(17)r15-12-12151215121512151215121512---------|
G|-----------------------------------------14b(16)~~|Bend Continues
D|--------------------------------------------------| Slightly into
A|--------------------------------------------------|   Next Bar
E|--------------------------------------------------|

e|-------------------------|--------------------------------------|
B|~~(16)r14p12------12b----|--------------------------------------|
G|--------------14------14-|-14p12----------12/14~~---------12/14-|
D|-------------------------|-------14p12\10--------14p12\10-------|
A|-------------------------|--------------------------------------|
E|-------------------------|--------------------------------------|
                                           (Piking fast and bending 15)
e|-----12-15-15b(17)~~-12h15p12h15p12------------------------------------|
B|-/15-------------------------------15/17\15p1215b15p1215b15p1215bp1215b|
G|-----------------------------------------------------------------------|
D|-----------------------------------------------------------------------|
A|-----------------------------------------------------------------------|
E|-----------------------------------------------------------------------|

e|---------------------------------------------------------------|
B|15p1215b15p1215b(17)~~15p12h15p12------------------------------|
G|----------------------------------14b(16)r14p12------2b(4)r2p0-|
D|------------------------------------------------2-2------------|
A|------------------------------------------------2-2------------|
E|------------------------------------------------0-0h3----------|

e|-----------------------------|
B|-----------------------------|
G|-----2b~~~2b2p0--------------|
D|-2------------2-2--0h2-2p0---|
A|-2------------2-2----------2-|
E|-0h3b-0~~-----0-0------------|

e|--------------------------               |-------------------------------|
B|--------15p12-------15p12- <-Repeat riff |--15p12h15p12h15p12h15p12h12---|
G|-14b(16)~~~~~14b(16)~~~~~- 5x do it fast |14b(16)(16)(16)(16)(16)(16)~---|
D|--------------------------        then-> |-------------------------------|
A|-------------------------- Rpt. this about|------------------------------|
E|-------------------------- ten times & turn wah on |---------------------|

e|--------------------------|
B|------------------15B(17)~| <-This riff ends the crazy fast part.
G|14b-14b(16)-14p12---------|
D|--------------------------|
A|--------------------------|
E|--------------------------|

2:27
e|------------------------|------------------------|
B|------------------------|------------------------|
G|--------------2b(4)p0---|--------------2b(4)p0---|
D|-2--2-2----2~---------2-|-2--2-2----2~---------2-|
A|-2--2-2-----------------|-2--2-2-----------------|
E|-0--0-0-3b--------------|-0--0-0-3b--------------|

              3---                      3---
 Slower        ^ ^                       ^ ^
e|-------------xxxx--------------------|-xxxx-----------------|
B|-------------xxxx--------------------|-xxxx-----------------|
G|-------------xxxx---------------2bp0-|-xxxx-----------------|
D|-2--2-2----2-xxxx---2p0h2p0h20-------|-xxxx-2p0h2p0h2p0---2-|
A|-2--2-2------xxxx--------------------|-xxxx-----------------|
E|-0--0-0-3b---xxxx-3------------3-----|-xxxx-------------3b--|

thanks thats it. Ill start working on the tabs i couldnt get.
have Fun

R.I.P. JIMI HENDRIX
comments
print report bad tab
4 comments total. Showing first comments.
0 reply
Tony Black wrote on March 31 2010, 12:31 pm

aahhh first of all great tabs, but they are so hard to read. I am trying to learn track2(have you ever been), but i am having problems differentiating the different guitars. Help please.

0 reply
CommBreakDown wrote on May 2 2010, 12:02 am

Just for your info...Jimi Hendrix never used Synths....

0 reply
tugga06 wrote on May 27 2010, 12:24 pm

Voodoo Child is all kinds of wrong :

I want to post or [tab]
guest
You may want to rate the tab now too:
select rating
Please do not post tabs as comments. Select "correction" instead!