Oops, an error
Loading. Please wait.

Hey Joe Tab

32,097 views 27 this week
2 commentsread comments
1 2 3 4 5
worth learning
x 4
Autoscroll
+/-
esc
set tempo
stop
Contributor
Hey! There's an official Ultimate Guitar app which is ideal
for learning songs when you're away from computer. Get the app
WARNING: You are trying to view
                                    content from Ultimate-Guitar.com
                                    in an unauthorized application,
                                    which is prohibited.

                                    Please use an official Ultimate
                                    Guitar Tabs application for iPhone,
                                    iPad or Android to access legitimate
                                    chords, guitar, bass, and drum tabs
                                    from Ultimate-Guitar.com database.

                                    Type "ultimate guitar tabs" in Apple
                                    App Store's or Android Market's
                                    search to find the application.
Intro
 
                 E             N.C.            E5     N.C.

  Gtr I
|---0---0-----------|---------0-------------------|-----------------------||
|-3s5-5s3-----------|---------0-------------------|------------7-----7----||
|---------4s2p0-----|-----(1)-1-------------------|----4---7---7-7---7----||
|---------------0h2-|-(2)--2------------5-(5)---4-|-2--2---7h9---7h9---9\-||
|-------------------|-------------4-5---5-(5)---4-|-2--2------------------||
|-------------------|--0--------0-----0-------0---|-0--0-0----------------||


 1st Verse
  C5      G             D5          A5            E
  Gtr I
|---------------------|-------------------------|---------------------------|
|-----------3---------|-------------------------|---------------------------|
|-----5-----4---------|---7-7-------------------|----1---x------------------|
|-----5---------------|-7-------5s7-7---7-7-7-7-|----2---x--0-0-(0)---------|
|-3-3---3-------5-4-7-|-5-----7-7s9-7---7-7-7-7-|----2--(0)-0-0-(0)-2-------|
|---------3---7-------|-------------5-5---5-5-5-|-0-------------------3b3.5-|
|
| Gtr II
|                                                           PM--------|
|-----x-------x-------|-------x-----------x-----|----x----------------------|
|-x---x-------x-------|-------x-----------x-----|----x----------------------|
|-x---x-------x-------|-------x-----------x-----|----x----------------------|
|-----x-------x-------|-------x-----------x-----|----x----------------------|
|---------------------|-------------------------|-------------5--5----5-----|
|---------------------|-------------------------|-----------7-------7-------|


                         C       Gadd9           D           A5
|----------------------|-------------5---------|----------------------------|
|--------0-------------|-----5-----3-3-3-3-----|---------(0)-----0----------|
|----1-1-1-----1---x-x-|-----5-----4---4-4-----|-7-7---------2-2-2---2------|
|----2-2-2-0-0-2---x-x-|-----5-----5---5-5-----|-7-7-7-------2-2---x-2------|
|----2-------0-2---x-x-|-3-3---3---------------|-5---7-9-----0-----x--------|
|-0--0-----------0-----|---------3---------3-5-|-5---------------------3b4--|
|
|----x-----------x-----|-----x---------x-------|-----x-------------x--------|
|----x-----------x-----|-----x---------x-------|-----x-------------x--------|
|----x-----------x-----|-----x---------x-------|-----x-------------x--------|
|----x-----------x-----|-----x---------x-------|-----x-------------x--------|
|-7--------------------|-----------------------|----------------------------|
|----------------------|-------------------5s7-|-5--------------------------|


  E
|--------------------------------|
|-0--0-(0)-0-0-------------------|
|-1--1-(1)-1-1-------------------|
|-2--2-------2-------------------|
|-2--2---------------------------|
|-0--0-----------0-3-(3)---0-3---|
|
|----x---------------------------|
|----x---------------------------|
|----x---------------------------|
|----x-------------0-(0)-------0-|
|--------------1s2-------2-------|
|--------------------------------|


                                    C       Gadd9
|-----------0---------------0-----|-------------5---5---------|
|-----0-0---0-----3-3-5-(5)-3---0-|-----------3-3-3-3-----3---|
|---1-1-1-1---2s4-4-4---------4S0-|-----5---4-4---4---4---4---|
|---2---2-2-----------------------|-----5-5-5---------5-------|
|---2---2-------------------------|-3-3-3-3-------------------|
|---0---0-------------------------|---------3-----------------|
|
|   ~   PM
|-------0-------------------------|-----x---------------------|
|-------0-------------------------|-----x---------------------|
|---------------------------------|-----x---------------------|
|-0h2---------------0-------------|-----x---------------------|
|-------------1s2-----------------|---------------2-----------|
|---------------------------------|---------3---------5s7-----|


  D         Aadd9         E
|-------------7-7---7---|--------------------------------|
|-------7-----5-5-5-5-6-|----------9---------------------|
|-------7-----6---6---7-|----9---9-9---------------------|
|-5s7-7-7-7-7-7---7-----|----9-x-9-9---------------------|
|-7s9-------------------|----7-x-----------------5-------|
|-----------------------|-0----------5s7p5--5------3b3.5-|
|
|                            ~
|-----------x-----------|----x---------------------------|
|-------7---x-----------|----x---------------------------|
|-------7---x-----------|----x---------------------------|
|-------7---x-----------|----x---------------------5b5.5-|
|-5---------------------|----------------5-(5)-----------|
|-----------------------|------------6s7-------7---------|


|--------------------------|
|-------0-------0-x-0-0----|
|-------1-1-0---0-x-0-1----|
|-0h2-5-2-2-0---0-x--------|
|-0h2-----------0----------|
|---0--------------------0-|
|
|   ~
|--------------------------|
|--------------------------|
|--------------------------|
|--------------------------|
|---7-----------5-7-5------|
|-------------7-------7\---|


  C       Gadd9           D             A             E
|-----------10-10-7-----|-------------------7-------|------------------------0-|
|-----5---3-10-10-8-8-8-|-----7---5-7-7---5-5-5-----|-0--------------------0-0-|
|-----5---4-------7-7-7-|-----7---5-7-7---6---6-7-7-|-1--------1-1-------------|
|-----5---5-------9-9-9-|-----7-7-5-7-7-7-7---7-7-7-|-2--------2-2---0-(0)-2---|
|-3-3---3---------------|-7s9---9-7-9-9-------------|-2--2-(2)---2-2-0-(0)-2---|
|-----------------------|---------------5-----------|-0--0-(0)---0-------------|
|
|-----x---------x-------|-----------x---------x-----|----x--------------x------|
|-----x---------x-------|-----------x---------x-----|----x--------------x------|
|-----x---------x-------|-----------x---------x-----|----x--------------x------|
|-----x---------x-------|-----------x---------x-----|----x--------------x------|
|-----------------------|---------------------------|--------------------------|
|-----------------------|---------------------------|--------------------------|


                              2nd Verse
                               C       Gadd9       D         A
|---0-0-0---------0---------||-----------7-3-----|---------------------|
|---0-0-0-----------0-------||-----5---3---3-----|---------------------|
|-0h1-1-1-----1-----1-------||-----5---4---4-----|---7---------6-------|
|---2-2-2---0-2-x-----------||-----5---5---------|---7-7-7-7---7-7-----|
|---------------x---------2-||-3-3---------------|-5-5-7-8-9-7-7-7-----|
|---------4-----4-----4-5---||-------3-3-----3h5-|-----------5-5-5-5s7-|
|
|-------x-------------x-----||-----x-------x-----|-----x---------x-----|
|-------x-------------x-----||-----x-------x-----|-----x---------x-----|
|-------x-------------x-----||-----x-------x-----|-----x---------x-----|
|-------x-------------x-----||-----x-------x-----|-----x---------x-----|
|---------------------------||-------------------|---------------------|
|---------------------------||-------------------|---------------------|


  E
|---0-----------------------|
|---0-----------9-(9)-----9-|
|-1---7---9-----9-(9)-9-9-9-|
|-2---7---9---9-9-(9)-9-9-9-|
|-------7-7-----------7-7---|
|-0-------------------------|
|
|-----x---------------------|
|-----x---------------------|
|-----x---------------------|
|-----x---------------------|
|---------------5--5----5---|
|-----------5-7-------7-----|


                                        C       Gadd9
                                                      PM
|-------------------------------------|-------------3--------|
|-9-7-7-7-7-----9-9\-9-10-(10)-9------|-------------3--------|
|-9-7-7-7-7-9-9-9-9\-9--9--(9)-9----0-|-----5---4-------4-2--|
|-9-7-7-7-7-9-9-9-9\-9-11-(11)-9------|-----5---5-5-----0-0--|
|-------------------------------------|-3-3-5-3-------2------|
|--------------------------------12---|---------3------------|
|
|---------x-----------------x---------|-----x---------x------|
|---------x-----------------x---------|-----x---------x------|
|---------x-----------------x---------|-----x---------x------|
|---------x-----------------x---------|-----x---------x------|
|-------------------------------------|----------------------|
|-------------------------------------|-----------------5s7--|


  D           Aadd9             E
    PM------|
|-----------------7-(7)-------|-----0---0-----------0-|
|---------------5-5-(5)-------|-0---0-0-0-0-0-(0)-0-0-|
|---7-----------6-6-(6)-------|-1-1-1-1-1-1-1-(1)-1-1-|
|-7-7-----------7-------------|-2-2---2-2-2-2-(2)-2---|
|-5-5-7-7s9---------------6-8-|-2-------2-------------|
|-----------7-5---------5-----|-0-------0-------------|
|
| ~
|--------------------x--------|-----x----------x------|
|--------------------x--------|-----x----------x------|
|-----7--------------x--------|-----x----------x------|
|-----7--------------x--------|-----x----------x------|
|-5---------------------------|-----------------------|
|-----------------------------|-----------------------|


|-2s4-4-4-4-------4-4----0--------------------|
|------------------------0--0-0-0---0-x-------|
|-2s4-4-4-4-------4-4-------1-1-1---1-x-------|
|---------------------------2-2-2---2-x-------|
|---------------------------2-------2---------|
|---------------------------0-------0---6s5---|
|
|                     ~~~~~~        ~
|---------------------------------------------|
|---------------------------------------------|
|---------2b3r(2)---0-------------------------|
|---------------------2-(2)-2-0-----2---------|
|---------------------------------2-----------|
|---------------------------------------------|


  C       Gadd9             D         A
|-----------5-5p=3--------|-------------------------|
|-----5-5-3-3-3-(3)-3-----|-3-3-3-3-3-2-2-2-2-2-2-2-|
|-----5-5-4-4-4-(4)-4-2---|-2-2-2-2-2-2-2-2-2-2-2-2-|
|-----5-5-5---------5-0---|-0-0-0-0-0-2-2-2-2-2-2-2-|
|-3-3---3-----------------|-----------0-0-0-0-0-0-0-|
|---------3---------------|-------------------------|
|
|                           ~
|-----x----------x--------|-----x-----------x-------|
|-----x----------x--------|-----x-----------x-------|
|-----x----------x--------|-----x-----------x-------|
|-----x----------x--------|-----x-----------x-------|
|-------------------------|-5-5---------------------|
|-------------------5s==7-|-------------------------|


  E
|----0-------------------------------|
|----0-----x-------------------------|
|-1--1-1-1-x-12---------12b13--------|
|-2--2-2-2-x-14-14-(14)-------14-----|
|-2--2---------------------------14--|
|-0--0-------------------------------|
|
|----x-------------------------------|
|----x-------------------------------|
|----x-------12----------------------|
|----x-------12-----14\--------------|
|------------------------------------|
|------------------------------------|


                      C         G               D           A
|-------------------|-------------5-5-5-5-5---|-------------5---7-(7)-5-----|
|---0-0-------------|-----5---0---3-3-3-3-3---|-----7-------5-5-5-(5)-5-5\--|
|---1-1-1-0-1-------|-----5-0-----4-4-4-4-4---|-7---7-7-7---6-6-6-(6)-6-6\--|
|---2-2-2-0-2---2-0-|-----5-----5-5-5-5-5-5---|-7---7-9-7-7-7-7-7-(7)-7-7\--|
|---2---2-------2---|-3-3---------------------|-7h9-9-----9-----------------|
|-0-----0-----0-0---|-----------3-------------|-------------5---------------|
|
|                                               ~~
|-----x-------------|-----x-----------x-------|-------x------------x--------|
|-----x-------------|-----x-----------x-------|-------x------------x--------|
|-----x-------------|-----x-----------x-------|-------x------------x--------|
|-----x-----2---4---|-----x-----------x-------|-------x------------x--------|
|-----------------4-|-------------------------|-5---------------------------|
|-------------------|---------------------3s7-|-----------------------------|


  E
                                TP    TP   TP
|-----------0-0-0-0-0-0-0-|-2s4-4----(4)--(4)-||
|-9---9-----0-0-0-0-0-0-0-|-----3----(3)--(3)-||
|-9---9-9-9-1-1-1-1-1-1-1-|-2s4-4----(4)--(4)-||
|-9-9-9-9-9-2-------------|-------------------||
|-7-7-7-7-7-2-------------|-------------------||
|-----0-----0-------------|-------------------||
|
|-------------------------|-------------------||
|-------------------------|-------------------||
|-------------------------|-------------------||
|-2-----------------------|-------------------||
|-------------------------|-------------------||
|-0-----------------------|-------------------||


 Guitar Solo
  C                        Gadd9
   ~~~~~                               ~~
|---------12-----------------------------------|
|-15b17------15--12----------------------------|
|---------------(12)-14b16r(14)p12----12-------|
|----------------------------------14----------|
|----------------------------------------------|
|----------------------------------------------|
|
|----------------------------------------5-----|
|----------5------5---5------3---------3-3-----|
|----------5------5---5------4---------4-4---4-|
|----------5------5---5------5---------5---5-5-|
|--3----3--3------3---3------------------------|
|----------------------------3---------3---3---|


  D                        A
   ~~~~~
|---------12-12---12-------------------------------------|
|-15b17------15---12------------12-----------------------|
|--------------------14b16-(14)----14---12s14s12b13-(12)-|
|--------------------------------------------------------|
|--------------------------------------------------------|
|--------------------------------------------------------|
|
|--------------------------------------------------------|
|-------3------------(0)-----2------2-2--2--2--2---------|
|-------2--2---------(0)-----2------2-2--2--2--2---------|
|--0-------2----2s=4---------2------2-2--2--2--2---------|
|----------------------------0------0-0--0--0--0---------|
|--------------------------------------------------------|


  E
   ~~              PM               ~~~                                 ~~~~~
|------------------------------------------------|--------------------------------------|
|------------------------------------------------|-------15b17---------15b17------------|
|------12----12\-------------------12------------|--------------------------------------|
|-14------14-------------12-(14)-x-----------14\-|--------------------------------------|
|--------------------/14-----14------------------|--------------------------------------|
|------------------0-----------------------------|--------------------------------------|
|
|--0--------------------------0----(0)--------0--|-0-0-0--4----4-4-4-4--4----4-4-4------|
|--0----------------------0---0----(0)--------0--|-0-0-0--3----3-3-3-3--3----3-3-3------|
|--1---------------------------------------------|-1-1-1--4----4-4-4-4--4----4-4-4------|
|--2----0--------0-------------------------------|-2-2-2--------------------------------|
|----2--------2----2---2-------------------------|-2-2-2--------------------------------|
|----0-----3---------------------------3b3.5-----|-0-0-0---------------------------12\--|


  C                                 Gadd9
                                                 ~~
|-12-12-15------------12---------------------------------|
|-12-15-12-12----(12)-12-15---------12-------------------|
|----------14b16-(14)-------14b14.5----------14-12-------|
|--------------------------------------12-14-------------|
|--------------------------------------------------------|
|--------------------------------------------------------|
|
|---------------------------------------------5----5-3---|
|------------------5------5--3-------3-----3--3--3-3-3---|
|------------------5------5--4-------4-----4-----4-4-4---|
|------------------5------5--5-------5-----5-------------|
|--3-----3---------------------------------------------0-|
|------------------------------------3-------------------|


    D                               A                              E
                            ~~~~                                    ~~
|--------------12-15b17r==(15)---12------------12----------------|-----------------------------------|
|-----------12------------------------------15----15-------------|-----------------------------------|
|---14b16---------------------------14b16------------14b16-------|-12--------------------------------|
|----------------------------------------------------------------|------------14\-----/16----14-16---|
|----------------------------------------------------------------|--------------------/16------------|
|----------------------------------------------------------------|----------------0------------------|
|
|---------3--3--0------------------------------------------------|------0----------------------------|
|-3-------3--3--3-----------------2------------------------------|------3------------------------0---|
|-2-------------2--------------2--2------------------------------|------4-4---------4--(4)-0-----0---|
|-0-------------0-------2s==4-----2-------4-----2----------------|----------0h=2---------------------|
|---------------------------------0----------------4--2----------|----------------2-5--(5)-----------|
|----------------------------------------------------------3b3.5-|--0-0------------------------------|


     ~~~~~~~
|------------------------------------------|
|------------------------------------------|
|---12-(12)--------------------------------|
|-x----------14\---------------------------|
|-----------(14)\--------------------------|
|-----------------------5s10s19\-----------|
|
|----0---0--------0---0----0--0--0-0-0-----|
|----0---0--------0-0-0----0--0--0-0-0-----|
|---------------------1----1--1--1-1-1-9\--|
|-----------------------------2--2-2-2-----|
|--------------------------------------7\--|
|------------------------------------------|


  C       G         D       A
|-----x-------x---|-----x-------x----|
|-----x-------x---|-----x-------x----|
|-----x-------x---|-----x-------x----|
|-----x-------x---|-----x-------x----|
|-----------------|------------------|
|-----------------|------------------|
|
|-----------------|------------------|
|-----------------|------------------|
|-----------------|------------------|
|-----------------|------------------|
|-3---------2-3-4-|-5---------4-5-6--|
|---0-1-2-3-------|---2-3-4-5--------|


|--------------------------------|
|--------------------------------|
|--------------------------------|
|-------0tr2---------------------|
|--------------------------------|
|--------------------------------|
|
|---0--------------------------0-|
|---0----------7-7-------------0-|
|--------------7-7---7-7---9-----|
|-9---7h9p===7---7-7-7-7-9-9-9---|
|-7------------------------------|
|-0------------------------------|


                                    3rd Verse
                                     C            G
|---------------------------------||--------8-8-----------7-7------|
|---------------------------------||--------8-8---------8-8-8------|
|---------------------------------||----9-9-----7-(7)-7---7-7------|
|---------------------------------||---10-------7h=9------9-9-9\---|
|---------------------------------||-------------------------------|
|---------------------------------||-9-----------------------------|
|
|---------------------------------||--------x-------------x--------|
|-9p7-9-9-7-9-9-------------------||-x------x-------------x--------|
|-9p7-9-9-7-9-9-9-9-7h9-9-7-9-----||-x------x-------------x--------|
|-9p7-9-9-7-9-9-9-9-7h9-9-7-9-----||--------x-------------x--------|
|---------------------------------||-------------------------------|
|-----------------------------12\-||--------------------------7s5--|


  D         A             E
|-----------------7-----|-0-0-0-0-0-0-0-0-0-----|
|-------7-----5-5-5---x-|-0-0-5-3-5-3-5-0-0-----|
|-----7-7-7---6-6-6---x-|-----------------1-1---|
|---7-7-7-7-7-7-7-7-7-x-|-------------------2-2-|
|-5-5-5-5-5-------------|---------------------2-|
|-----------5-5---------|---------------------0-|
|
| ~
|-------x---------x-----|-----x-----------------|
|-------x---------x-----|-----x-----------------|
|-------x---------x---x-|-----x-----------x-----|
|-------x---------x---x-|-----x-----------x-----|
|-5---------------------|-----------------------|
|-----------------------|-----------------------|


|-----0----------0-0---0-0-0-0-----|
|-----0---0----0-3-5-3-3-3-3-3-----|
|---1----------------4-------------|
|-2-2------------------------------|
|-2-2--------------------------(0)-|
|-0-0------------------------------|
|
|------------------------x---------|
|------------------------x---------|
|---------7tr9-----------x---------|
|-----7-9----------------x---------|
|----------------------------------|
|----------------------------------|


  C       G                 D               A
|---------3-3-5-5-----3---|-----------------------5-5-5-5-|
|---------3-3-3-3-3-3-3---|-------7---7---0---5-5-5-5-5-5-|
|-----5---4-----4-4-4-----|-----7-7-7-7-7-----6-6-6-6-6-6-|
|-----5-5-5---------------|-7---7---7---7---7-7-7-7-7-7-7-|
|-3-3---3-----------------|-7h9-----9---------------------|
|---------3---------------|-----------------5-------------|
|
|                           ~~
|-----x---------x---------|-------------------------------|
|-----x---------x---------|---------7---------------------|
|-----x---------x---------|---------7-------------x-------|
|-----x---------x---------|---------7-------------x-------|
|-------------------------|-5-----------------------------|
|-------------------3S==7-|-------------------------------|


  E
|-----0-0-0-0--0-----0-----|
|-----0-0-0-0--0-----0-----|
|---1-1---1-1--1-----1-----|
|---2-2---2-2--2-----2-----|
|---2----------------------|
|-0-0----------------------|
|
|-----x--------------------|
|-----x--------------------|
|-----x--------------------|
|-----x-------------12tr14-|
|-------------12h14--------|
|--------------------------|


|-------------------------------------------------------|
|-------------------------------------------------------|
|-------12-12-14-12-------12-------12----------12-------|
|-------12-12-14-12-14--------14---------12-12-12-12----|
|-12h14-------------------------------14-12-12-12-14-12-|
|-------------------------------------------------------|
|
|-------------------------------------------------------|
|-------------------15-------(15)\----------------------|
|-------------------14b16----(14)\----------------------|
|-------------------------------------------------------|
|-------------------------------------------------------|
|-------------------------------------------------------|


  C             G         D                   A
|---------------5-3-----|-----------------------5-5-----|
|---5-----------3-3-----|-----7-7-7-------------5-5-----|
|---5-5---------4-4-----|-----7-7-7-7-----------6-6-----|
|---5-5---------5-5-----|-----9-9-7-7-----------7-7-----|
|-3-3-3-------------0---|-5---------9-7-----------------|
|-------2-2-3-3-3-------|---------------8-----5-----5p0-|
|
|-----x-----------------|-------------------------x-----|
|-----x-----------------|-------------------------x-----|
|-----x-----------------|-------------------------x-----|
|-----x-----------------|-------------------------x-----|
|-----------------------|-5---5-------7-----------------|
|-------------------5s7-|---7-----------8b8.5-5-5---5---|


  E
|-0-0---0----------------------------|
|-0-0---0-----0--------------------0-|
|-------1----------------------------|
|-------2-----------2-0-----0-2------|
|---------2---------------2----------|
|-------0---0---0s4------------------|
|
|-------0----------------------------|
|-------0----------------------------|
|-----0h1----------------------------|
|-----------------------------0tr2---|
|---------------------0h2------------|
|------------------------------------|


                                C       G
|--0-------0------0-----------|--------------------|
|--0-0-----0---0--0---0---0-0-|--------------------|
|----1-------1------1-----1-1-|--------------------|
|-------------------2-----2-2-|--------------------|
|-----------------------------|-3---------2-3--4---|
|-------------------0---------|---0-1-2-3----------|
|
|------2s4--------------x-----|-----x-------x------|
|-----------------------x-----|-----x-------x------|
|------2s4--------------x-----|-----x-------x------|
|-----------------------x-----|-----x-------x------|
|-----------------------------|--------------------|
|-----------------------------|---------------/5s7-|


  D         A         E
|-------------------|-------------------------0-|
|-------------------|---9-9-9p7-7-7-------9---0-|
|-------------------|---9-9-9p7-7-7-----9-9-9---|
|-------------------|-9-9-9-9p7-7-7-7h9-9-9-9---|
|-5-----------4-5-6-|-7-------------------------|
|-----2-3-4-5-------|-0-------------------------|
|
|---------------x---|-------x-------------x-----|
|---------------x---|-------x-------------x-----|
|---------------x---|-------x-------------x-----|
|---------------x---|-------x-------------x-----|
|-5h7p5-------------|---------------------------|
|-------------------|---------------------------|


|--------------------------------------------------------|
|---10-10-9--9----9--(9)-9--9--------9-------------------|
|-9-----9-9--9-9--9--(9)-9--9--------9----9--9-9\--------|
|-9h11------12---11-(11)---12-------12---11-11-9\--------|
|--------------------------------------------------------|
|--------------------------------------------------------|
|
|------------x-------------------------------------------|
|------------x-------------------------------------------|
|------------x--------------2b3r(2)----0-----------------|
|------------x----------------------------2----2p0h2p0---|
|--------------------------------------------------------|
|--------------------------------------------------------|


  C          G               D         A             E
|------8-------5-3-5-3-----|-----------------------|----0--0--(0)-----0--|
|------8-----3-3---3-3-5-3-|-----------5-5-5-5-----|-0--0--0--(0)---0----|
|------9---4-4-4---4-4-4-4-|---7-------6-6-6-6-----|-1--1--1--(1)-1------|
|-----10---5-5-5---5-5-5-5-|---7---7-7-7-7-7-7-----|-2-------------------|
|--------------------------|-5-----7-9-------------|-2-------------------|
|-8-8----3---3-3-----------|-----------5-5-5-5-3p0-|-0-------------------|
|
|------x-------------------|-----------------x-----|----x------x---------|
|------x-------------------|-----------------x-----|----x------x---------|
|------x-------------------|-----------------x-----|----x------x---------|
|------x-------------------|-----------------x-----|----x------x---------|
|-3------3-----------------|-5---5h7-8-7-----------|---------------------|
|------------3-3---3---3---|-----------------------|---------------------|


                                    C       G         D       A
|-0-------0---0-----0-----0-0-----|-----------------|------------------|
|---0-0---0---0-----0-----0-0-----|-----------------|------------------|
|---1-1---2---1-----2-----1-2-----|-----------------|------------------|
|---2-2---2---2-----2-----2-2-----|-----------------|------------------|
|---------------------------------|-3---------2-3-4-|-5---------4-5-6--|
|-----------------------------12\-|---0-1-2-3-------|---2-3-4-5--------|
|
|---------------------------------|-----x-------x---|-----x-------x----|
|------------------15b17\---------|-----x-------x---|-----x-------x----|
|---------------------------------|-----x-------x---|-----x-------x----|
|-------0h2-0h2p0-----------------|-----x-------x---|-----x-------x----|
|---------------------------------|-----------------|------------------|
|---------------------------------|-----------------|------------------|


  E                                                       C       G
|-0--0-0-2s4-0-0-(0)---0---|----0-0-0-0-----0---0-------|-------------------|
|-0--0-------0-------0---0-|----0-0-0-0-----0---0-------|-------------------|
|-1------2s4---------------|----1-2-2-2-2b4-2---1-------|-------------------|
|-2------------------------|----2-----------0-------2p0-|-------------------|
|-2------------------------|----2-----------------------|-3---------2-3-4---|
|-0------------------------|-0--0-----------------------|---0-1-2-3---------|
|
|----x------------x--------|----x-----------------------|-----x-------x-----|
|----x------------x--------|----x-----------------------|-----x-------x-----|
|----x-----x------x--------|----x-----------2h4p2s1-----|-----x-------x-----|
|----x-----x------x--------|----x-------------------2---|-----x-------x-----|
|--------------------------|----------------------------|-------------------|
|--------------------------|----------------------------|---------------5s7-|


  D       A         E          (E)
|-----------------|----------|-----*|
|-----------------|----------|-----*|
|-----------------|----------|-----*|
|-----------------|----------|-----*|
|-5---------4-5-6-|-7--------|-----*|
|---2-3-4-5-------|----------|-----*|
|
|-------------x---|----------|-----*|
|-------------x---|----------|-----*|
|-----7-------x---|----------|-----*|
|-----7-------x---|----------|-----*|
|-5---------------|----------|-----*|
|-----------------|----------|-----*|
comments
print report bad tab
2 comments total.
0 reply
theoddmenout wrote on April 18 2005, 12:00 am

this looks like the best version yet, but I'll have to play around with it. Good Job!

0 reply
Hippieboy826 wrote on February 7 2010, 10:25 pm

Look at version 9 and 8. This version is horrible compared to those. Got that theoddmenout. What a stupid ****ing **** ass nigger bitch name

I want to post or [tab]
guest
You may want to rate the tab now too:
select rating
Please do not post tabs as comments. Select "correction" instead!