Oops, an error
Loading. Please wait.

If 6 Was 9 Bass Tab

ver2
ver2

Whole song

Interactive

More versions @911Tabs.com
3,856 views 12 this week
no commentswrite comment
1 2 3 4 5
excellent!
x 2
Autoscroll
+/-
esc
set tempo
stop
Contributor
Tuning
D# G# C# F# A# D#
Hey! There's an official Ultimate Guitar app which is ideal
for learning songs when you're away from computer. Get the app
WARNING: You are trying to view
                                    content from Ultimate-Guitar.com
                                    in an unauthorized application,
                                    which is prohibited.

                                    Please use an official Ultimate
                                    Guitar Tabs application for iPhone,
                                    iPad or Android to access legitimate
                                    chords, guitar, bass, and drum tabs
                                    from Ultimate-Guitar.com database.

                                    Type "ultimate guitar tabs" in Apple
                                    App Store's or Android Market's
                                    search to find the application.
-------------------------------------------------------------------------------
			     SONG NAME - Band Name
-------------------------------------------------------------------------------
Tabbed by: R8:31b

Tuning: D#-G#-C#-F#  or Eb-Ab-Db-Gb if you'd like...

F#|--------------------|--------|--------------------|--------|--------------------|
C#|--------------------|--------|--------------------|--------|--------------------|
G#|-5---7--------------|--------|-5---7--------------|--------|-5---7--------------|
D#|--------------------|--------|--------------------|--------|--------------------|


F#|--------|--------------------|---------------7----|--------------------|------7--------------|
C#|--------|--------------------|-------7---9--------|--------------------|-----------9---------|
G#|--------|-5---7--------------|--------------------|-5---7--------------|---------------------|
D#|--------|--------------------|--------------------|--------------------|---------------------|


F#|--------------------|------7--------------|--------------------|--------|--------------------|
C#|--------------------|-----------9---------|--------------------|--------|--------------------|
G#|-5---7--------------|---------------------|-5---7--------------|--------|-5---7--------------|
D#|--------------------|---------------------|--------------------|--------|--------------------|


F#|---------------7----|--------------------|------7-----------------|--------------------|
C#|-------7---9--------|--------------------|-----------7--9---------|--------------------|
G#|--------------------|-5---7--------------|------------------------|-5---7--------------|
D#|--------------------|--------------------|------------------------|--------------------|


F#|------7-----------------|--------------------|------7-----------------|--------------------|
C#|-----------7--9---------|--------------------|-----------7--9---------|--------------------|
G#|------------------------|-5---7--------------|------------------------|-5---7--------------|
D#|------------------------|--------------------|------------------------|--------------------|


F#|--------|------------------------|---------------------------|------------------------|
C#|--------|-7----------------------|-7--7----------------------|-5----------------------|
G#|--------|-----------7-------7----|---------7---7--------7----|------5---5-------------|
D#|--------|--------------5---------|-----------------5---------|--------------3----5----|


F#|------------------------|--------------------|--------|--------------------|--------|
C#|-4---------3------------|--------------------|--------|--------------------|--------|
G#|---------------3--------|-5---7--------------|--------|-5---7--------------|--------|
D#|------2------------1----|--------------------|--------|--------------------|--------|


F#|------------------------|-----------------|------------------------|-----------------|
C#|------------------------|-----------------|------------------------|-----------------|
G#|-5---7------------------|-5---------------|-5---7------------------|-5---------------|
D#|-------------------7----|-----------------|-------------------7----|-----------------|


F#|------------------------|-----------------|------------------------|-----------------|
C#|------------------------|-----------------|------------------------|-----------------|
G#|-5---7------------------|-5---------------|-5---7------------------|-5---------------|
D#|-------------------7----|-----------------|-------------------7----|-----------------|


F#|------------------------|-----------------|------------------------|-----------------|
C#|------------------------|-----------------|------------------------|-----------------|
G#|-5---7------------------|-5---------------|-5---7------------------|-5---------------|
D#|-------------------7----|-----------------|-------------------7----|-----------------|


F#|------------------------|-----------------|------------------------|-----------------|
C#|------------------------|-----------------|------------------------|-----------------|
G#|-5---7------------------|-5---------------|-5---7------------------|-5---------------|
D#|-------------------7----|-----------------|-------------------7----|-----------------|


F#|--------------------------|-----------------------|--------------------|----------------------|
C#|-7---7--------------------|-7---------------------|-5------------------|-4-----------3--------|
G#|---------7---------7---7--|-----7---------7---7---|-----5---------5----|-----4-----------3----|
D#|--------------5-----------|----------5------------|----------3---------|--------2-----------1-|


F#|--------------------|--------|-9----9--------------|------------------------|---------------|
C#|-2------------------|--------|---------------------|------------------------|---------------|
G#|--------------------|--------|-----------7----7----|-7----7----5-------6----|-7---------7---|
D#|--------------------|--------|---------------------|---------------7--------|---------------|


F#|------------------------|---------------------|------------------------|----------------------|
C#|------------------------|---------------------|------------------------|----------------------|
G#|-7-------------5---5----|-7----7----7----7----|-7----7----7-------5----|-7---------7----------|
D#|-----------7------------|---------------------|---------------7--------|--------------------7-|


F#|--------------------------------|----------------------------|-------------------------------|
C#|--------------------------------|----------------------------|-------------------------4---5-|
G#|-5--7------7--------5---6---7---|-7----7---7---7---7---7---7-|-7---7---7---7---7---7---------|
D#|----------------7---------------|----------------------------|-------------------------------|


F#|----------------------------|-10--9--8--7---------------|---------------------------|
C#|-------------------8--9--10-|---------------10--9--7--7-|-----------------8--10--10-|
G#|-----7--8--9--10------------|---------------------------|----7--8--9--10------------|
D#|-8--------------------------|---------------------------|-8-------------------------|


F#|-10--8--7------------------|----9--8--7--6----------|------------------------|
C#|-----------10--10--8--7--9-|----------------9--7--7-|-6-----6--7--6-----6--9-|
G#|---------------------------|-7----------------------|----7-----------7-------|
D#|---------------------------|------------------------|------------------------|


F#|-7-----7--8--9--7--------|--------------------------|------------------------|
C#|---9---------------9---8-|-7--7---------------------|----------------5--6--7-|
G#|-------------------------|------9--9--7-----5--7--5-|-7--5--6--7--8----------|
D#|-------------------------|---------------7----------|------------------------|


F#|----5----5--8--7--7--5---|---------------------------|-----------------------|
C#|-8----7----------------6-|-7--7--5-----5--5----------|---------------3--5--7-|
G#|-------------------------|----------8--------8--7--5-|---2--3--4--5----------|
D#|-------------------------|---------------------------|-3---------------------|


F#|----9--8--7--6------------|------------------------|----------------7---8---9-|
C#|----------------9---7---7-|-6----------------------|----6--7--8--9------------|
G#|-7------------------------|----7--6--5-----5--6--7-|-7------------------------|
D#|--------------------------|-------------8----------|--------------------------|


F#|-9--7--7--6--------------7-|---------------------------|-----7--8--9--11--12--8--9-|
C#|-------------9--7--6--7----|------------------8--9--10-|-10------------------------|
G#|---------------------------|----7--8--10--10-----------|---------------------------|
D#|---------------------------|-8-------------------------|---------------------------|


F#|-10----------------------|---------------------------|-----------------------|
C#|----10-10--8-------------|-----------------8--10--10-|-7--7--5---------------|
G#|-------------10--9--8--7-|----7--8--9--10------------|---------7--5----5---6-|
D#|-------------------------|-8-------------------------|---------------7-------|


F#|--------------5--7--9--9-|-9--7--6-----7----7---9-|-9--9--7--6---------------|
C#|----5--6--7--------------|----------7----9--------|------------7--7--7--6----|
G#|-7-----------------------|------------------------|------------------------7-|
D#|-------------------------|------------------------|--------------------------|


F#|-----------------------|--------------------|--------------------------|
C#|-8--6--5-------------5-|-7--5--4------------|----------------2---3---4-|
G#|----------8--6--7--8---|---------7--6--4--7-|----2--3--4--5------------|
D#|-----------------------|--------------------|-5------------------------|


F#|-----2---3---4---7---11--14----|---------4---------4-|------4---------4----|
C#|-6-----------------------------|-----4---4-----------|---------------------|
G#|-----------------------------0-|-2------------2------|-2---------2---------|
D#|-------------------------------|---------------------|---------------------|


F#|------4---------4--|------4---------4--|------4---------4--|------4---------4--|
C#|-------------------|-------------------|-------------------|-------------------|
G#|-2---------2-------|-2---------2-------|-2---------2-------|-2---------2-------|
D#|-------------------|-------------------|-------------------|-------------------|


F#|------4---------4--|------4---------4--|------4---------4--|------4---------4--|
C#|-------------------|-------------------|-------------------|-------------------|
G#|-2---------2-------|-2---------2-------|-2---------2-------|-2---------2-------|
D#|-------------------|-------------------|-------------------|-------------------|


F#|-----------------|--------|--------|--------------------|------------------------|
C#|-----------------|--------|--------|--------------------|------------------------|
G#|-2---------------|--------|--------|-----------------5--|-7----------------------|
D#|-----------------|--------|--------|--------------------|-------------------7----|


F#|---------------------------|------------------------|---------------------------|
C#|---------------------------|------------------------|---------------------------|
G#|-5----------------------5--|-7----------------------|-5----------------------5--|
D#|---------------------------|-------------------7----|---------------------------|


F#|------------------------|-----------------|------------------------|-----------------|
C#|------------------------|-----------------|------------------------|-----------------|
G#|-5---7------------------|-5---------------|-5---7------------------|-5---------------|
D#|-------------------7----|-----------------|-------------------7----|-----------------|


F#|------------------------|-----------------|------------------------|-----------------|
C#|------------------------|-----------------|------------------------|-----------------|
G#|-5---7------------------|-5---------------|-5---7------------------|-5---------------|
D#|-------------------7----|-----------------|-------------------7----|-----------------|


F#|------------------------|-----------------|------------------------|-----------------|
C#|------------------------|-----------------|------------------------|-----------------|
G#|-5---7------------------|-5---------------|-5---7------------------|-5---------------|
D#|-------------------7----|-----------------|-------------------7----|-----------------|


F#|------------------------|-----------------|------------------------|-----------------|
C#|------------------------|-----------------|------------------------|-----------------|
G#|-5---7------------------|-5---------------|-5---7------------------|-5---------------|
D#|-------------------7----|-----------------|-------------------7----|-----------------|


F#|------------------------|--------------------|--------|--------|-----------------|
C#|------------------------|--------------------|--------|--------|-----------------|
G#|-7----------------------|-5------------------|--------|--------|-----------------|
D#|-------------------7----|--------------------|--------|--------|------------7----|


F#|----------------|-----------------|-----------------|-----------------|----------|
C#|----------------|-----------------|-----------------|-----------------|----------|
G#|-5--------------|-----------------|-5---------------|-----------------|-5--------|
D#|----------------|------------7----|-----------------|------------7----|----------|


F#|-----------------|--------------------|--------------------------|---------------------|
C#|-----------------|--------------------|------------------9---9---|------9---------9----|
G#|-----------------|-5------------------|-7-----7--7--7----7-------|-7----7----7---------|
D#|------------7----|--------------------|--------------------------|---------------------|


F#|---------------------|---------------------|---------------------|---------------------|
C#|------9---------9----|------9---------9----|------9---------9----|------9---------9----|
G#|-7---------7---------|-7---------7---------|-7---------7---------|-7---------7---------|
D#|---------------------|---------------------|---------------------|---------------------|


F#|---------------------|---------------------|---------------------|---------------------|
C#|------9---------9----|------9---------9----|------9---------9----|------9---------9----|
G#|-7---------7---------|-7---------7---------|-7---------7---------|-7---------7---------|
D#|---------------------|---------------------|---------------------|---------------------|


F#|---------------------|---------------------|---------------------|---------------------|
C#|------9---------9----|------9---------9----|------9---------9----|------9---------9----|
G#|-7---------7---------|-7---------7---------|-7---------7---------|-7---------7---------|
D#|---------------------|---------------------|---------------------|---------------------|


F#|---------------------|---------------------|---------------------|---------------------|
C#|------9---------9----|------9---------9----|------9---------9----|------9---------9----|
G#|-7---------7---------|-7---------7---------|-7---------7---------|-7---------7---------|
D#|---------------------|---------------------|---------------------|---------------------|


F#|---------------------|---------------------|---------------------|---------------------|
C#|------9---------9----|------9---------9----|------9---------9----|------9---------9----|
G#|-7---------7---------|-7---------7---------|-7---------7---------|-7---------7---------|
D#|---------------------|---------------------|---------------------|---------------------|


F#|---------------------|---------------------|---------------------|---------------------|
C#|------9---------9----|------9---------9----|------9---------9----|------9---------9----|
G#|-7---------7---------|-7---------7---------|-7---------7---------|-7---------7---------|
D#|---------------------|---------------------|---------------------|---------------------|


F#|---------------------|---------------------|---------------------|---------------------|
C#|------9---------9----|------9---------9----|------9---------9----|------9---------9----|
G#|-7---------7---------|-7---------7---------|-7---------7---------|-7---------7---------|
D#|---------------------|---------------------|---------------------|---------------------|


F#|---------------------|---------------------|---------------------|---------------------|
C#|------9---------9----|------9---------9----|------9---------9----|------9---------9----|
G#|-7---------7---------|-7---------7---------|-7---------7---------|-7---------7---------|
D#|---------------------|---------------------|---------------------|---------------------|


F#|---------------------|---------------------|---------------------|---------------------|
C#|------9---------9----|------9---------9----|------9---------9----|------9---------9----|
G#|-7---------7---------|-7---------7---------|-7---------7---------|-7---------7---------|
D#|---------------------|---------------------|---------------------|---------------------|


F#|------------------------|-----------------------------|---------------------------------|
C#|------9---------9---9---|------9----9--------9----9---|----------9----9--------9----9---|
G#|-7---------7------------|-7-------------7-------------|-7----7------------7-------------|
D#|------------------------|-----------------------------|---------------------------------|


F#|---------------------------|-------------------------|--------------------|
C#|--------9--9-----9---9---9-|-------9--9---------9--9-|----9--9-------9--9-|
G#|-7--7---------7------------|-7--7--------7---7-------|-7--------7--7------|
D#|---------------------------|-------------------------|--------------------|


F#|------------------------|---------------|---------------------------|
C#|--------9--9-----9--9---|-----9-----9---|--------9--9---------9--9--|
G#|-7--7---------7---------|-7-----7-------|-7--7---------7--7---------|
D#|------------------------|---------------|---------------------------|


F#|------------------------|-------------------------|------------------------|
C#|--------9--9-------9--9-|-----6------6------6---7-|--------9--9-------9--9-|
G#|-7--7--------7--7-------|-7------7------7---------|-7--7--------7--7-------|
D#|------------------------|-------------------------|-----------------------|-


F#|------------------------|-------------------------|------------------------|
C#|-------9--9--------9--9-|-------9--9---------9--9-|-------9--9--------9--9-|
G#|-7--7--------7--7-------|-7--7--------7--7--------|-7--7--------7--7-------|
D#|------------------------|-------------------------|------------------------|


F#|-----------------------------|--------|
C#|----------9-------------9----|--------|
G#|-7----7--------7----7--------|-7------|
D#|-----------------------------|--------|
comments
We did not receive enough feedback on this tab! Please rate:
print report bad tab
1 2 3 4 5
I want to post or [tab]
guest
You may want to rate the tab now too:
select rating
Please do not post tabs as comments. Select "correction" instead!