Oops, an error
Loading. Please wait.

Little Wing Tab

ver4
ver4

Intro

Whole song

Video

More versions @911Tabs.com
92,468 views 365 this week
no commentswrite comment
1 2 3 4 5
accurate
x 5
Autoscroll
+/-
esc
set tempo
stop
Contributor
Hey! There's an official Ultimate Guitar app which is ideal
for learning songs when you're away from computer. Get the app
WARNING: You are trying to view
                                    content from Ultimate-Guitar.com
                                    in an unauthorized application,
                                    which is prohibited.

                                    Please use an official Ultimate
                                    Guitar Tabs application for iPhone,
                                    iPad or Android to access legitimate
                                    chords, guitar, bass, and drum tabs
                                    from Ultimate-Guitar.com database.

                                    Type "ultimate guitar tabs" in Apple
                                    App Store's or Android Market's
                                    search to find the application.
--------------------------------------------------------------

    JIMI HENDRIX - LITTLE WING. From AXIS: BOLD AS LOVE album.
                   Released in the UK on 1st December 1967.

--------------------------------------------------------------

    Tabbed by:PJVillanueva





Well she’s walking through the clouds
With a circus mind that’s running round
Butterflies and zebras
And moonbeams and fairy tales
That’s all she ever thinks about
Riding with the wind.

When I’m sad, she comes to me
With a thousand smiles, she gives to me free
It’s allright she says it’s allright
Take anything you want from me, anything
Anything.

Fly on little wing,
Yeah yeah, yeah, little wing








         Remember that you must tune your guitar a half step 
         down to match Jimi's recordings.




        Intro



      e|------------ ------------ ------------ x-12-\------|
      B|---------------------------------------x-12-\------|
      G|---------------------------------------x-12-\------|
      D|---------------------------------------------------|
      A|---------------------------------------------------|
      E|---------------------------------------------------|


                    (12)
      e|------------ ------------ ------------ ------------|
      B|-------------x--x-------------------------5--5-\---|
      G|-------------x--x---------------0---------5--5-\---|
      D|-------------x--x------------------5------5--7-\---|
      A|--------------------------0-H-2----5-H-7-----------|
      E|0--------------------------------------------------|



      e|------------ 3H5P3-3----- ------------ ------------|
      B|-------------3-----3------3-----3------------------|
      G|-------------4------------4H5---5--4---5--4--------|
      D|----------------------5---5------------------5-----|
      A|------5--------------------------------------------|
      E/3-----------------------------------------------3--|



      e|------------ ------------ ------------ ------------|
      B|--------------------------5------------------------|
      G|-------------------5------5H7---5-5----------------|
      D|----------------------------------5H7--5--5--------|
      A|-------------5--7-----7----------------5H7---5-----|
      E|5--------------------------------------------5H7-\-|



      e|------------ 3H5P3------- ------------ ------------|
      B|-------------3------3------------------------------|
      G|--------------------------------7--7---7-----7-----|
      D|-----------------------------5--7--7H9-7-----7-----|
      A|-----------------------7--7--------------10--7-----|
      E|0--------------------------------------------------|



      e|------------ 7H9------9-- ---7-------- ------------|
      B|-------------7--------7--10--7---------------6-----|
      G|-------------7-----7--7---7------------------7-----|
      D|------7------------7------------9------------8-----|
      A|---------------------------------------------------|
      E|7--------------------------------------6-----------|



      e|------------ ------------ ------------ ------------|
      B|------5--------------------------------------------|
      G|------5------5--5--5------5-----5--5---5-----------|
      D|------7------9--7--5------5-----5--7---5-----------|
      A|----------------------8---7------------------------|
      E|5---------------------------------------- 5-H-7-\--|



      e|------------ 5/7---5----- 5-\---3----- 3-----3-----|
      B|-------------3/5---3------3-\---1------1-----1-----|
      G|------0------0-----0------0-----0------0-----0-----|
      D|------0------5/7---5------5-\---3------2-----2-----|
      A|---------------------------------------2-----2---0-H
      E|3----------------------------------1---1--1--1-----|
                                           T


      e|------------ ------------ ------------ ------------|
      B|------1---------1----------------------------------|
      G|------2--2---2--2H4P2-----------7--7---7--7--7--7--|
      D|------2-------------------------7--7---7--7--7--7--|
      A|3---------------------x--/5------------------------|
      E|---------------------------------------------------|

                              x   x x x X x x  X x x X x x

      e|------------ ------------ ------------ ------------|
      B|7--------------------------------------------------|
      G|7-----7--7----------------7------------------------|
      D|7H9---7--7---7-----7------7------------------------|
      A|------------10-----7------9------------------------|
      E|---------------------------------------------------|



        x   X     X        X  X

      e|------------ ------12-\--|
      B|-------------------12-\--|
      G|-------------------12-\--|
      D|-------------------------|
      A|-------------------------|
      E|-------------------------|
                     Well she's 


        0:35

      e|------------ 0----------- ------------ ------------|
      B|-------------0-------------------------------------|
      G|-------------0H2P0---------------------------------|
      D|-------------0-------------------------------------|
      A|--------------------------7--7-----7---5H7P5-------|
      E|0---------------------7----------------------5H7-\-|
        walking                                through
                                                    the clouds


      e|------------ ------------ ------------ ------------|
      B|--------------------------3--3--3------3-----------|
      G|-------------------2--0---2--4--2--0---2-----------|
      D|---------------------------------------------------|
      A|---------------------------------------------------|
      E|3--------------------------------------------------|
                                                  With a circus 



      e|------------ ------------ ------------ ------------|
      B|---------------------------------------------------|
      G|--------------------------5--5--5-----------5H7P5H7|
      D|--------------------------9--7--5-----------5H7P5H7|
      A|---------------------------------------5--7--------|
      E|5--------------------------------------------------|
              mind                       that’s running 



      e|------------ 3H5P3------- ------------ ------------|
      B|-------------3-------------------------8-----------|
      G|--------------------4---------------------7--------|
      D|---------------------------------------------7-----|
      A|------------------------------------------------7--|
      E|0--------------------------------------------------|
        round



      e|------------ 7--9--7----- ------------ ------------|
      B|---------------------10---7-----7-----------6------|
      G|-----------------------------7--7H9P7-------6H8P6--|
      D|-------------------------------------9----8------8-|
      A|---------------------------------------------------|
      E|7--------------------------------------------------|   
        Buterflies   and   zebras         and  moonbeams



      e|------------ ------------ ------------ ------------|
      B|---------------------------------------------------|
      G|5-----5--5---5--5--5-------------------------------|
      D|7-----7--7---9--7--5------5--5--5--5---5-----5-----|
      A|----------------------7---8--8--8--7---8-----7H8-\-|
      E|---------------------------------------------------|
                             and  fairy              tales



      e|------------ 3---3------- 3-----3----- 3-----------|
      B|-------------3---3--------1-----1------1-----------|
      G|-------------4H5-4--------0-----0--0---0-----------|
      D|--------------------5-----3-----3------3--3--3-----|
      A|------------------------------------------3--3-----|
      E|3--------------------------------------------------|
                         That's all 
                                she ever thinks about


      e|------------ ------------|
      B|-------------1-----------|
      G|0------------------------|
      D|2------------------------|
      A|3------------------------|
      E|3------------------------|
                     riding with the

                                                         x

      e|------------ ------------ ------------ ------------|
      B|3--------3---3--3------------------3------3--3-----|
      G|2--------2---2--2---------2--------2------2--2-----|
      D|0--------0---0--0---------0--------0------0--0-----|
      A|---------------------------------------------------|
      E|---------------------------------------------------|
        wind


        X   x  xxxx  X   X  xxxx  X   X   X        X X                                                   

      e|2----------- ------------ ------------ ------------|
      B|3------------------------------------------8-------|
      G|2------------------------------------------7-------|
      D|0------------------------------------------7-------|
      A|-------------------------------------------7-------|
      E|---------------------------------------------------|
                                                  When I'm 


        1:07
                                   H
      e|------------ ------------ 121412------ ------------|
      B|--------------------------12--12-12-12-------------|
      G|---------------------------------14-12-12-12-------|
      D|--------------------------------------14-12-12-----|
      A|---------------------------------------------12H14-\
      E|0--------------------------------------------------|
        sad                             she    comes  to me



      e|------------ ------------ ------------ ------------|
      B|-------------3/5---3/5--3/5--\--3------------------|
      G|-------------3/4---2/4--2/4--\--2---------7\-------|
      D|------------------------------------------7\-------|
      A|---------------------------------------------------|
      E|3--------------------------------------------3--4--|
                                                  with a thousand



      e|------------ ------------ ------------ ------------|
      B|---------------------------------------------------|
      G|---------------------------------------------------|
      D|--------------------------------5--5---5-----------|
      A|--------------------------------5--7---5-----------|
      E|5---------------------5---5--8------------5H7-\----|
               smiles                   she    gives to me



      e|------------ 3H5P3------- ------------ ------------|
      B|-------------3-----3-------------------------------|
      G|-------------------4-------------------4--2--2H4-4-|
      D|--------------------------2-----2------------------|
      A|---------------------------------------------------|
      E|0--------------------------------------------------|
        free



      e|------------ -------9---- 9--7-------- ------------|
      B|--------------------7-----7--7--7------------------|
      G|--------------------7--7--7--7---------------7-----|
      D|---------------------------------------------------|
      A|---------------------------------------------------|
      E|7----------------------------------5---6-----------|
            It's allright,  she says,     it's   allright

        1:24

      e|5----------- ------------ ------------ ------------|
      B|5--7P5---------------------------------------------|
      G|-------------5------------------5------------------|
      D|---------7---5--7--5------5-----5--5---5--5--5--5--|
      A|---------7------7--7------5--7-----8---7--8--7--5--|
      E|---------------------------------------------------|
                               take anything         you want 



      e|------------ ------5/7--- 5--\--3----- 3-----------|
      B|--------------------------3--\--1------1-----------|
      G|-----0H2-----------5/7----0--\--0------0-----------|
      D|-------------0H2----------5--\--3------3-----------|
      A|---------------------------------------------------|
      E|3------------------------------------------- 3--3/5|
            from me,



      e|------------ ------------|
      B|-------------------------|
      G|-------------------------|
      D|--------5---------5------|
      A|3---------------------3--|
      E|-------------------------|


                                                         x

      e|--------2--- ------------ 2----------- ------------|
      B|3-------3----------3------3-------3----------------|
      G|2-------2----------2------2-------2----------------|
      D|0-------0----------0------0-------0----------------|
      A|---------------------------------------------------|
      E|---------------------------------------------------|
        anything

        1:36
        x x x X             x x x X         x  x x x X
            +
      e|---12------- ------------ ------------ ------------|
      B|---12----(tremolo-bar-dive)------------------------| 
      G|---12----------------------------------------------|
      D|---------------------------------------------------|
      A|---------------------------------------------------|
      E|---------------------------------------------------|





      e|0-----0----- 0-----0--0-- 0--0--0--0-- 0-----0-----|
      B|0-----0------0-----0--0---0--0--0--0---0-----0-----|
      G|0-----0------0-----0--0---0--0--0--0---0-----0-----|
      D|2-----2------2-----2--2---2--2--2--2---2-----2-----|
      A|2-----2------2-----2--2---2--2--2--2---2-----2-----|
      E|0-----0------0-----0--0---0--0--0--0---0-----0-----|

      e|------------ ------------ ------------ ------------|
      B|15B17--~------------------15B17-15-----12----12H15-|
      G|---------------------------------------------------|
      D|---------------------------------------------------|
      A|---------------------------------------------------|
      E|---------------------------------------------------|




      e|3-----3----- 3--------3-- 3-----3----- 3-----3--3--|
      B|3-----3------3--------0---1P0---1P0----1P0---0--0--|
      G|0-----0------0--------0---0-----0------0-----0--0--|
      D|0-----0------0--------0---0-----0------0-----0--0--|
      A|2-----2------2-------------------------------------|
      E|3-----3------3--------3---3-----3------3-----3--3--|

      e|------------ ------12---- ------------ ------------|
      B|12--------------------15---------------------15----|
      G|--------------------------14B16-14-----14B16-------|
      D|---------------------------------------------------|
      A|---------------------------------------------------|
      E|---------------------------------------------------|
               Fly   on,          little  wing



      e|5------5--5- 5--5--5--5-- 5--5--5--5-- 5--5--5---5-|
      B|5------5--5--5--5--5--5---5--5--5--5---5--5--5---5-|
      G|5------5--5--7--5--5--5---7--5--5--5---5--5--5---5-|
      D|7------7--7--5--7--7--7---5--5--7--5---7--5--5---5-|
      A|7------7--7--7--7--7--7---7--7--7--7---7--7--5H7-5-|
      E|5------5--5--5--5--5--5---5--5--5--5---5--5--5---5-|

      e|------------ ------------ ------------ ------------|
      B|---------------------------------------------------|
      G|14B16-14--~--14B16-141214B16R14B16-----16R14----12-|
      D|---------------------------------------------------|
      A|---------------------------------------------------|
      E|---------------------------------------------------|




      e|------------ ------------ ------------ ------------|
      B|---------------------------------------------------|
      G|-------------12----12-12---------------12-12--12-12|
      D|-----12-14---12----12-12-----12-12-----12-12--12-12|
      A|-----12-14-------------------12-12H14--------------|
      E|0-------------------------0------------------------|

      e|------------ ------------ ------------ ------------|
      B|---------------------------------------------------|
      G|-------------12-14B16-12--14----12-14--12-14--~----|
      D|14---------------------------14--------------------|
      A|---------------------------------------------------|
      E|---------------------------------------------------|




      e|------------ 7--9-10--9-- 7----------- ------------|
      B|------7--7---7--7--7--7---7-----7--7------6--6-----|
      G|------7--7---7--7--7--7---7-----7--7------6--6-----|
      D|------9--9----------------9-----9--9------8--8-----|
      A|9-----9--9----------------9-----9--9------8--8-----|
      E|7-----7--7----------------7-----7--7------6--6-----|

      e|------------ ------------ ------------ ------------|
      B|---------------------------------------------------|
      G|12H14--~-----14B16--~-----14P12--------14B16-------|
      D|---------------------------------------------------|
      A|---------------------------------------------------|
      E|---------------------------------------------------|




      e|5-----5--5-- 5--5--5----- 0--------0-- 2--2--2--2--|
      B|5-----5--5---5--5--5------1--------1---3--3--3--3--|
      G|5-----5--5---5--5--5------0--------0---2--2--2--2--|
      D|7-----7--7---7--7--7------2--------2---0--0--0--0--|
      A|7-----7--7---7--7--7------3--------3---------------|
      E|5-----5--5---5--5--5------3--------3---------------|

      e|------------ ------------ ------------ ------------|
      B12H13R12-1312-13--12-------15B17--~-----17-R-15--12-|
      G|--------------------12-----------------------------|
      D|---------------------------------------------------|
      A|---------------------------------------------------|
      E|---------------------------------------------------|




      e|3-----3----- 3-----3--3-- 1-----1--1-- 1--1--1--1--|
      B|3-----3------3-----3--3---1-----1--1---1--1--1--1--|
      G|0-----0------0-----0--0---2-----2--2---2--2--2--2--|
      D|0-----0------0-----0--0---3-----3--3---3--3--3--3--|
      A|2-----2------2-----2--2---3-----3--3---3--3--3--3--|
      E|3-----3------3-----3--3---1-----1--1---1--1--1--1--|

      e|------15-15- -----15----- 13-13------- ------------|
      B|---------------------------------------13------13--|
      G|14B16--------14B16--14R12-------12-----12------12--|
      D|---------------------------------------------------|
      A|---------------------------------------------------|
      E|---------------------------------------------------|




      e|0-----0----- 0--0--0--0--|
      B|1-----1------1--1--1--1--|
      G|0-----0------0--0--0--0--|
      D|2-----2------2--2--2--2--|
      A|3-----3------3--3--3--3--|
      E|3-----3------3--3--3--3--|

      e|------------ ------------|
      B|8------------8-----------|
      G|7------------7H9R7-------|
      D|------10-----------10----|
      A|-------------------------|
      E|-------------------------|


                                                         x

      e|2-----2----- 2--2--2----- 2-----2--2-- 2--2--2-----|
      B|3-----3------3--3--3------3-----3--3---3--3--3-----|
      G|2-----2------2--2--2------2-----2--2---2--2--2-----|
      D|0-----0------0--0--0------0-----0--0---0--0--0-----|
      A|---------------------------------------------------|
      E|---------------------------------------------------|

      e|------------ ------------ ------------ ------------|
      B|-------------8------8--8--8------8-----------------|
      G|-------------7-H-9--9--9--9P7----7-----------------|
      D|10/12---12--------------------12-------------12----|
      A|---------------------------------------------------|
      E|---------------------------------------------------|

     
        2:08
        x  x  X  x   x  X  x  x   X  x  X  x   X  X  x     
            +
      e|---12------- ------------ ------------ ------------|
      B|---12--(Tremolo-bar-dive)--------------------------|
      G|---12----------------------------------------------|
      D|---------------------------------------------------|
      A|---------------------------------------------------|
      E|---------------------------------------------------|




      e|0----------- 0----------- ------------ ------------|
      B|0------------0------------8-----8------------------|
      G|0------------0------------7H9---7------7-----7-----|
      D|2------------2-------------------------7H9---7H9---|
      A|2------------2-------------------------------------|
      E|0------------0-------------------------------------|

      e|------------ 12---------- ------------ ------------|
      B|15B17--~------------------15B17--15----------------|
      G|--------------------------------------14B16-14P12--|
      D|-------------------------------------------------12|
      A|---------------------------------------------------|
      E|---------------------------------------------------|
                                  Yeah,  yeah, yeah, yeah



      e|---------3-- 3--3--3--3-- ------------ ------------|
      B|---------3---3--3--3--3---3--3--3------------------|
      G|---------4---5--5--5--4---5--4--5------------------|
      D|---------5---5--5--5--5---5--5--5------------------|
      A|---------------------------------------------------|
      E|3--------------------------------------3-----4-----|

      e|------------ 15-------15- ----15----15 ---15-------|
      B|---------------------------------------------------|
      G|14B16--~------------------14B16-14B16-14B16-14B16--|
      D|---------------------------------------------------|
      A|---------------------------------------------------|
      E|---------------------------------------------------|
                                  ...........Fade..........



      e|------------ ------------ ------------ ------------|
      B|---------------------------------------------------|
      G|--------------------------7-5----------------------|
      D|------7------------7------7-5-7-5-7-5--------------|
      A|7-----7------------7-------------------7-5---------|
      E|5------------------------------------------7-6-5-3-|

      e|------------ ------------ ------------ ------------|
      B|---------------------------------------------------|
      G|16R14---12---14----12-14--14B16--~--R--14-12H14P12-|
      D|----------------14---------------------------------|
      A|---------------------------------------------------|
      E|---------------------------------------------------|
        ...................................................



      e|------------ ------------ ------------ ------------|
      B|---------------------------------------------------|
      G|---------12--14P12----12---------------------------|
      D|------14-12--14P12-14-12---------------------------|
      A|------14-----------14------------------------------|
      E|0--------------------------------------------------|

      e|------------ ------------ ------------ ------------|
      B|---------------------------------------------------|
      G|---------12--14P12----12---------------------------|
      D|14-------12--14P12-14-12--12-----------------------|
      A|-------------------14-----12-----------------------|
      E|---------------------------------------------------|
        ...............................










        B  Bend
        R  Release
        /  Slide up
        \  Slide down
        H  Hammer-on
        P  Pull-off
        ~  Vibrato
        +  Harmonic
        x  Mute note
        . - Play note like a dot in standard notation
        ^ - Ties two notes together
        (. Pause



   
comments
print report bad tab
I want to post or [tab]
guest
You may want to rate the tab now too:
select rating
Please do not post tabs as comments. Select "correction" instead!