Oops, an error
Loading. Please wait.

Message Of Love Tab

ver2
ver2

Whole song

Interactive

More versions @911Tabs.com
3,003 views 15 this week
no commentswrite comment
1 2 3 4 5
excellent!
x 1
Autoscroll
+/-
esc
set tempo
stop
Contributor
WARNING: You are trying to view
                                    content from Ultimate-Guitar.com
                                    in an unauthorized application,
                                    which is prohibited.

                                    Please use an official Ultimate
                                    Guitar Tabs application for iPhone,
                                    iPad or Android to access legitimate
                                    chords, guitar, bass, and drum tabs
                                    from Ultimate-Guitar.com database.

                                    Type "ultimate guitar tabs" in Apple
                                    App Store's or Android Market's
                                    search to find the application.
                               Message To Love                                 


                                                                    Jimi Hendrix

Tablature Legend
----------------
L - tied note
x - dead note
g - grace note
(n) - ghost note
> - accentuded note
NH - natural harmonic
AH - artificial harmonic
TH - tapped harmonic
SH - semi harmonic
PH - pitch harmonic
h - hammer on
p - pull off
b - bend
br - bendRelease
pb - preBend
pbr - preBendRelease
brb - bendReleaseBend
\n/ - tremolo bar dip
\n - tremolo bar dive
-/n - tremolo bar Release up
/n\ - tremolo bar inverted dip
/n - tremolo bar return
-\n - tremolo bar Release down
S - shift slide
s - legato slide
/ -  slide into from below or out of upwards
\ -  slide into from above or out of downwards
~ - vibrato
W - wide vibrato
tr - trill
TP - tremolo picking
T - tapping
S - slap
P - pop
< - fade in
^ - brush up
v - brush down

Lead Guitar



          w/ univibe                       
          E       E   Q     Q     S  S E   
D#||--------------------------------------|
A#||--------------------------------------|
F#||--------------------------------------|
C#||--10g12----------12----12----12-12----|
G#||-----------------------------------0--|
D#||-------------10-----------------------|


   E   E   E   E   E   E   S  S  S  S  
--------------------------------------|
--------------------------------------|
--10----------------------10----10-12-|
------12--12------12--12--10-12-10----|
--------------------------------------|
--------------10----------------------|


   E    E   S  S  S  S  E   S  S  S  S  S  S  
---------------------------------------------|
---------------------------------------------|
--10b----------------------------10-------12-|
-------12--12-12-12-12-12--12-12-10-12-12----|
------------x--x--x--x--x---x--x-------12----|
-----------10-10-10-10-10--10-10-------------|


   E   S  S  S  S  E   E   S  S  S  S S  S  
-------------------------------------------|
----------------------------------------13-|
--10--10------------------------------x-12-|
---------12-12-12-12--12--12-12-12-12------|
-------------------------------------------|
-------------------------------------------|


   E.   S  E   S S  S   S  E   S   S  E   
--------------------------10---------10--|
--13------12--12-x-10-----10--10-----10--|
--12---10-12--12-x-10h-11-11--10h-11-11--|
-------10-12--12-------------------------|
-----------------------------------------|
-----------------------------------------|


   E   S   S  S  S  S   S  E   S   S  E      S S  
-------------------12S-14-14--12S-14-14--------0-|
--12----------------x---x--x---x------x--------0-|
--12--12p-10----10-12S-14-14--12S-14-14--14g12-0-|
--12--12-----------------------------------------|
--10---------------------------------------------|
-------------10----------------------------------|


   E   S  S  E   S   S  S  S   S  S  S   S  E   
-----------------------10--------10--------10--|
--13--13-------------------------10--------10--|
--12--12-10-12--10h-11----10h-11----10h-11-----|
------------12---------------------------------|
-----------------------------------------------|
-----------------------------------------------|


   E   S  S  E   S   S  S  S   S  S  E   S  S  
-----------------------14--------14-14\-------|
--12--------------------x---------x--x\--0----|
--12------------12S-14-14-12S-14-14-14\--0----|
--12-------------------------------------0-10-|
--10--10--------------------------------------|
---------13-10--------------------------------|


                Well I travel at a speed...                     
   E   S S  E   E                           E   S  S  E   S  S  
---------------------------------------------------------------|
--13--13-x-----------------------------------------------------|
--12--12-x-12--12----------------------------------------------|
--10-------12--12------------------------------------12--------|
-----------------------------------------------------12--------|
-------------------------------------------10--10-10-----10-10-|


                               tr        
   E.   S  S  S  E   S  S  E   Q         
----------------------------------------|
--13------------------------------------|
--12---12-------------------------------|
--10----------------12-12-12--10(12)----|
---------------------x--x--x---x--------|
----------10-10-10--10-10-10--10--------|


   S  S  S  S  S   S  S  S  E   E   Q        E   S  S  E   E   E   E   E   E   
-----------------------------------------|------------------------------------|
--13-13-13-------------------------------|------------------------------------|
--12-12-12-12-12p-10---------------------|--12--------------------------------|
-----------12-12--10----12-12--12--12----|--12--10--------12--12--12--12--10--|
------------------------12--x---x---x----|------10---------x---x---x---x------|
---------------------13----10--10--10----|---------13-10--10--10--10--10------|


   E   S  S  E   E    E    S  S  E   E      E.    S  E   E    S  S  E   E   E   
----------------------------------------|--------------------------------------|
----------------------------------------|--------10-12--12---10----------------|
--12--12-12-12--12b--10b----------------|--10~---10-12--12b--10----------------|
--------------------------12-10-10--12--|-----------------------12-----10--12--|
----------------------------------------|--------------------------12----------|
----------------------------------------|--------------------------------------|


   E.    S  E    E    S  S  E   E   E   
---------------------------------------|
--------12-----------------------------|
--12~---12-12b--12b--10----------------|
------------------------12-----10--12--|
---------------------------12----------|
---------------------------------------|


   E.   S  E   S      S   S  S  E   E   E   
-------------------------------------------|
--10----------13---------------------------|
--10---10-12--12pbr-(12)-10----------------|
----------------------------12-----10--12--|
-------------------------------12----------|
-------------------------------------------|


   E   S  S  E   S  S  E   S  S  E   E   
----------------------------------------|
--13--13--------------------------------|
--12--12----12--12-12--------11-11------|
--10-----12-12--12-12--------12-12------|
---------------------------------x------|
----------------------10--10----10--10--|


   E   S  S  S  S  S  S  E   S  S  S  S S  S  
---------------------------------------------|
-------------------------------------13------|
------------------------11--------11----x-12-|
--12--10-------12-12----12--------12----x----|
--10--10-----------------x---------x---------|
---------13-10-------10-10--10-10-10---------|


   E   S S  E   E   E   E   E   E      E   S  S  S  S  E   E   S  S  S  S  S S  
---------x-------------------------|-------------------------------------------|
--13-----x-------------------------|-------------------------------------------|
--12--12---12----------------------|--12---------------------------------------|
--10-------12----------------------|--12------------------12--12-12-12-12-12---|
-----------10----------------------|--10--10---------------x---x--x--x--x--x-0-|
---------------13--10--10--10--10--|---------13-10-10-10--10--10-10-10-10-10---|


   S  S  S  S  S  S  E    E   E   E   E   
-----------------------------------------|
--12-------12----------------------------|
--12-10----12-10----10~------------------|
--------12-------12------12--12--12--12--|
------------------------------x---x---x--|
-----------------------------10--10--10--|


   S  S  S  S  S  S  E    S  S  E   E   E   
-------------------------------------------|
--12-------12-------10b--------------------|
--12-10----12-10----10b--------------------|
--------12-------12------12-12-12--12--12--|
--------------------------------x---x---x--|
-------------------------------10--10--10--|


   S  S  S  S  S  S  S  S  S  S  S S  E   E   
---------------------------------------------|
--12-------12--------------------------------|
--12-10----12-10----10-10--------------------|
--------12-------12-------12-10-12---12--12--|
---------x-----------------------x-x--x---x--|
--------10----------------------10-x-10--10--|


   S  S  S  S  S  S  E    S   S  E   E   E   
--------------------------------------------|
-----------12-------------------------------|
--12-10----12-10----10b---------------------|
--------12-------12------12p-10-----10--12--|
--------------------------------12-------x--|
----------------------------------------10--|


   E   E   E   S  S  E   E   S  S  E      E   E   S  S  S  S E   E   E.   S  
--10--10--10--------------------------|------------------------------8---10-|
--10--10--10-----12-------------------|----------10-10-10-10---------8---10-|
--11--11--11--11-12-------------------|----------10-10-10-10-----9---9---11-|
--12--12--12--12-12-12--12--12-12-12--|--10--10--10-10-10-10----10--10---12-|
---x---x---x---x----10--10--10-10-10--|---8---8---8--8--8--8-----x----------|
--10--10--10--10----------------------|----------------------8---8----------|


   E   S  S  S  S  S  S  E   E   E   S  S     E   E   E   E  E  E   E   S   S  
------10-10-10-10-10----------------------|-------------------------8---------|
--10--10-10-10-10-10-12-12--12--12--------|--10--10--10--10---------8---------|
--11--11-11-11-11-11-12-12--12--12--------|--10--10--10--10-----9---9---9S-11-|
--12--12-12-12-12-12----12--12--12--12-10-|--10--10--10--10-----8--10--10S-12-|
-------x--x--x--x--x----10--10--10--10----|---8---8---8---8-----x---x---------|
------10-10-10-10-10----------------------|------------------8--8---8---------|


   E   E   E   S  S  E   E   E   S  S     E   E   S  S  E  S S  E   E  S  S  
----------10--------------------------|-----------------------------8-------|
----------10--------12--12--12--------|----------10-10-10-----------8--8-10-|
--11--11--11-----12-12--12--12--12-10-|--10--10--10-10-10-------9---9--9-11-|
--12--12--12--12-12-12--12--12--12----|--10--10--10-10-10------10--10-------|
---x---x---x-----10-10--10--10--10----|---8---8---8--8--8-------x---x-------|
--10--10--10--------------------------|--------------------8-8--8---8-------|


   E   E   E   S  S  E   E   E   S  S     E   S  S  E   E   E   E   S  S E   
------10--10--------------------------|-------------------------------------|
--10--10--10--------------------------|--10--10-10-10--10---8---8-----------|
--11--11--11-----12-12--12--12--12----|--10--10-10-10--10---9---9---9--9----|
--12--12--12--12-12-12--12--12--12-10-|--10--10-10-10--10--10--10--10-10----|
---x---x---x---x-10-10--10--10--10----|---8---8--8--8---8---x---x---x----0--|
--10--10--10--10----------------------|---------------------8---8---8----0--|


   E   S S  E   S S  S  S  S  S  E   E    
-----------------------10-10----10--10---|
--13--13-x-12--12-x-13-------13-----13b--|
--12--12-x-12--12-x----------------------|
--10--10-x-12--12------------------------|
-----------10--10------------------------|
-----------------------------------------|


   Q      Q      S  S  S  S   S  S  S  S  
--10-----10-----10--------------10-10----|
--13b----13b-------12-10-----10----13-10-|
--13---------------------12b-------------|
-----------------------------------------|
-----------------------------------------|
-----------------------------------------|


   E    S  S    S  S  E   E    E   E   S      S   
-------------------------------------------------|
-------12-------------0--10b--10-----------------|
--12b-----12pb-12-10-12-----------12--12pbr-(12)-|
-------------------------------------------------|
-------------------------------------------------|
-------------------------------------------------|


                      tr                            
                                    |-----3-----|   
   Q.         S    S  Q.         S  T      T    T   
---------------------------------------------------|
---------------------------------------------------|
--10br------(10)h-12-10(12)--------12pbr-(12)p-10h-|
---------------------------------------------------|
---------------------------------0-----------------|
---------------------------------------------------|


   |---3---|        |---3---|        |---3--|                 
   S   S   S   E    S   S   S   E    S  S   S S  S  E    E    
-------------------------------------------------------------|
--------------------------------------------------------13b--|
--12p-10h-12p-10-----------------------------------10b-------|
-------------------12p-10----------\10-----------------------|
---------------------------12p-10------12p-10----------------|
----------------------------------------------0-13-----------|


   E     E   E    E      E    E   E    E   E    
---------------------|-------------------------|
---Lpb--13--13b--13--|--13b--13--13b--13--13b--|
---------------------|-------------------------|
---------------------|-------------------------|
---------------------|-------------------------|
---------------------|-------------------------|


   E.     S  S   S  S   S  S  S   S  S   S  S  E     
---------10-----10--------10-----10-----------------|
--13b~------13b-10-----10-10-----10-----------------|
-------------------12b-------12b----12b-12-10-------|
----------------------------------------------12b~--|
----------------------------------------------------|
----------------------------------------------------|


   Q    S  S  S S  S  S  S  S  E    S  S  
-----------------------------------------|
----------13-10--------------------------|
------------------12-10-12-10-12b--10-12-|
---L----0-------0---------------------12-|
-----------------------------------------|
-----------------------------------------|


                 Here comes a woman comin'               
   E.   S  Q     E                         E   E   S  S  
--------------------------------------------------------|
--13---12-12--------------------------------------------|
--12---12-12--------------------------------------------|
--10------12--------------------------------------------|
----------10--------------------------------------------|
----------------10------------------------10--10--10-10-|


   E   S  S  E   E   E     E   E   E      E   S S  E   S  S  E   E   E   S S  
--------------------------------------|--------------------------------------|
--------------------------------------|--13--13-x----------------------------|
--12--12-10---------------------------|--12--12-x-12-----------------------0-|
--12--12-10---------------------------|--10--10---12--10----12--12--12--12-0-|
--10--10------------------------------|-----------10-----12------x---x---x---|
------------10--10--10--0g10--10--10--|-------------------------10--10--10---|


   E   S  S S  S  E   E   S  S  S  S  S S  
------------------------------------------|
------------------------------------------|
-------------------------------11-11----x-|
--12--10-10---12-12--12--12-12-12-12------|
--10--10-10-0--x--x---x---x--x--x--x------|
--------------10-10--10--10-10-10-10-10---|


   E   S S  E   S S  E   E   E   S S     E   S  S  E   E   E   E   E   S S  
-------------------------------------|-------------------------------------|
--13--13-x---------------------------|-----------------------------------x-|
--12--12-x-12----------------------0-|--12-----12------------------------x-|
--10--10---12--10-x-12--12--12--12---|--12--12----12--12--12--12--12--12---|
-----------10--10-x--x---x---x---x---|--10--10-----x---x---x---x---x---x---|
--------------------10--10--10--10---|------------10--10--10--10--10--10---|


   E   S S  E   E   E   S  S  E   S  S     E   S S  E   E   E   E   E   S  S  
---------------------------------------|-------------------------------------|
--13--13-x-----------------------------|---------0---------------------------|
--12--12-x-12--------------------------|--12--12-0------------------------12-|
--10--10---12--10--12--12-12-12--12-12-|--12--12---12--12--12--12--12--12----|
-----------10--10---x---x--x--x---x--x-|--10--10----x---x---x---x---x---x----|
-------------------10--10-10-10--10-10-|-----------10--10--10--10--10--10----|


   E   S  S  E.   S  S  S  E   E   S S  
---------------------------------------|
--13--13----12-----------------------0-|
--12--12-12-12-----------------------0-|
--10--10-12-12---10----12-12--12--12---|
------------10----------x--x---x---x---|
--------------------10-10-10--10--10---|


   E   S  S  S  S  E   E   E   S  S  S  S  
------------------------------------------|
------------------------------------------|
--12--12-12-------------------------------|
--12--12-12-12-12-12-------------------10-|
--10--10-10-------------------------------|
----------------------10--10--10-10-10----|


   S  S  S S  E   E   E   S  S  E   S  S     E  S S  E   S  S  E   E   E   S S  
-----------------------------------------|-------------------------------------|
--13-13-13-------------------------------|------0-0----------------------------|
--12-12-12-x-12--10----------------------|--12--0-0--------------------------0-|
--10-10-10---12--10------------12--12-12-|--12--0-0-----12-12-12--12--12--12-0-|
-------------10-----------------x---x--x-|--10-----------x--x--x---x---x---x---|
---------------------10--10-10-10--10-10-|----------10--10-10-10--10--10--10---|


   E   S S  E   S  S  E   E   S  S  E   
---------------------------------------|
--13--13-x--------------------------0--|
--12--12-x-12--12-10----------------x--|
--10--10---12--12----12--12--12-12-12--|
-----------10---------x---x---x--x--x--|
---------------------10--10--10-10-10--|


   E   S  S  E   E   S  S  E   S  S  S  S  
------------------------------------------|
---------------------------------------13-|
--12--10-10----------------------------12-|
--12--10-10-----12--12-12-12--12-12----10-|
--10-------------x---x--x--x---x--x-------|
------------10--10--10-10-10--10-10-10----|


   E   S S  E   S  S  E   E   E   E   
-------------------------------------|
--13--13-----------------------------|
--12--12-0-12----------------11--11--|
--10-------12--------12--12--12--12--|
---------------10-----x---x---x---x--|
------------------13-10--10--10--10--|


   E  S S  E   S   S  S  S  S  S     S   S  S  S  
---------------------10-10-10--------------------|
------------------10----13-10--------------------|
--12--0-0-----12b-------------12br-(12)-10-------|
--12--0-0----------------------------------12-10-|
--10---------------------------------------------|
----------10-------------------------------------|


   E   S S  E   S  S  E   E   E   E      E   S   S  S S  E   E   E   E   S  S  
-------------------------------------|--12--12--------------------------------|
--13--13-x-----12-12-----------------|--12--12p-10----0-----------------------|
--12--12-x-12--12-12-------------11--|--12--12p-10-------------------------10-|
--10--10---12--12-12-------------12--|--12--12-----12---12--12--12--12--12----|
-----------10--10-10--------------x--|--10--10------x----x---x---x---x---x----|
---------------------10--10--10--10--|-------------10---10--10--10--10--10----|


   S  S  S  S  S S  E    S  S  E   E   E   
------------------------------------------|
-----------12----0------------------------|
--12-10----12-10---10b--------------------|
--------12--------------12-12-----12--12--|
-----------------------------------x---x--|
------------------------------10--10--10--|


   S  S S  S  S  S  E    S S  E   E   E   
-----------------------------------------|
-----------------------------------------|
--12-10---12-10----10b---------------12--|
--------0-------12--x---12-0-12--12--12--|
--------------------0------0--x---x---x--|
-----------------------------10--10--10--|


   S  S  S  S  S  S  E    S S  S  S  E   S  S  
----------------------------------------------|
--12----------------10------------------------|
--12-10----12-10----10~--------------------12-|
---0----12-------12------12-x-------12--12----|
-------------------------------------x---x----|
------------------------------10-10-10--10----|


   S  S S  S  S  S  E    E   E   E   E   
----------------------------------------|
-------------------------0--------------|
--12-10---12-10----10b---0--------------|
--------0-------12------12--12--12--12--|
-------------------------x---x---x---x--|
------------------------10--10--10--10--|


  PM  PM  PM PM PM PM PM  PM  PM PM PM PM 
  E   E   S  S  S  S  E   E   S  S  S  S  
---------10-10----10---------------------|
---------10-10----10---------12-12----12-|
-----11--11----11------------12-12-12-12-|
--0---0---------0------------12----12----|
---------------------10--10--10----10----|
-----------------------------------------|


  PM    PM PM PM PM    PM  PM PMPM PM  
  Q     S  S  S  S S S E   S  S S  S   
-------10-10----10--------10-10-------|
-------10----10------------x----------|
-------10----10----x-x-----9-------9--|
-------------10----x-x----------------|
--8-----------------------------------|
-----------------------8--------8-----|


   PM  PM PM  PM PM PM PM  PM  PM  PM  PM    PM       PM PM  PM         
   S   S  S   S  E  S  S   E   E   E   E     Q    E   E  E   E  E  S S  
----------------10------------------------|----------------------------|
----------------10----------------12------|----------------------------|
--11-(11)----11-11-----0--12------12------|----------10---------x--x-x-|
----------0---------0--0--12------12--12--|----------10-----10--x--x-x-|
--------------------------10--10--10--10--|--8--------8------x---------|
------------------------------------------|--------------8---8---------|


                   |---3---|      |---3---|         
   S  S E   E  E   S   S   S  E   S   S   S  S   S  
---------------------------------------------------|
-----------10-----12h-15p-12-----------------------|
--11-11----11----------------12--12h-14p-12--------|
--------0--12--x-------------14-------------14p-12-|
---------------x-----------------------------------|
---------------------------------------------------|


   |---3---|             |---3---|                   
   S   S   S  E   S   S  S   S   S  S   S E   E  E   
---------------------------------------------10-----|
--10h-13p-10----------------------------------8-----|
----------------------------------------------------|
-------------12---------10h-12p-10------------------|
-----------------10h-12------------12p-10-----------|
------------------------------------------8------8--|


                               |---3---|      
   E   E   S   S  E    E   E   S   S   S  E   
-----------------14\-------------------------|
------10----------x\----------12h-15p-12-----|
------11--12s-14-14\------12--12-------------|
--------------------------12-------------14--|
----------------------10---------------------|
--10-----------------------------------------|


   |---3---|      |---3---|                           
   S   S   S  E   S   S   S     E  E   E   E      E   
-----------------------------------------------------|
--10h-13p-10----------------------------------10g12--|
--10--------------------------------------12---------|
-------------12--10h-12p-10-----------12-------------|
----------------------------10g12-----12-------------|
-----------------------------------8-----------------|


   Q      E   E  S   S E   E     S  S    E  E  E  E   S  S  S  S  S  S  S  S  
--------------------------------------|--------------------------------------|
--10~----12--10-----------------------|--------x--x--------------------------|
-----------------9h-11-9~--L--9g10p-9-|--x--x--x--x--10p-9-10p-9-10p-9-10p-9-|
--------------------------------------|--------------------------------------|
--------------------------------------|--------------------------------------|
--------------------------------------|--------------------------------------|


                |---3--|                                                     
   E    E   E   S   S  S E  E  Q       Q    E      E      E   E   S   S  E   
------------------------------------|---------------------------------------|
------------------------------------|---------------------------------------|
--10b--10---L---------------x-------|---------------------------------------|
---------------12p-10---------------|----------10g12--10g12--10---------10--|
----------------------12------------|----------------------------10h-12-----|
-------------------------x----------|---------------------------------------|


   S   S  S   S E  E   E   E   S   E  S    E   E    E.    S  E   E   E   E   
----------------------------------------|-----------------------------------|
----------------------------------------|-----------------------------------|
----------------------12--10------------|-----------------------------------|
----------------x-------------12p-10----|-----10b--10b------10------10--11--|
--12p-10------------------------------x-|--x-------------12-----12----------|
---------13p-10-------------------------|-----------------------------------|


            |---3--|                      
   E   E    S   S  S   E  E   E   E.   S  
-----------------------------------------|
-----------------------------13--13---10-|
------10~--------------------------------|
--12-------12p-10------------------------|
------------------12p-10-----------------|
-----------------------------------------|


   S   S  S  S  S  S  S  S  S   S  E   E   S   S  
-------------------------------------------------|
--13p-10-13-13--L-10-13-10-13p-10-13b-----13p-10-|
-------------------------------------------------|
-------------------------------------------------|
-------------------------------------------------|
-------------------------------------------------|


   |----3----|                                   |---3--|  
   S    S    S  E   E    E      S   E.    S  S   S  S   S  
----------------------------------------------------------|
----------------------------------------------------------|
--12b-(12)p-10-----12b--10br--(10)-10~----L---------------|
---------------12---------------------------12p-10--------|
---------------------------------------------------12p-10-|
----------------------------------------------------------|


  Q     S   E.   S   E.   S   E   S       S  S  S  S  S   E.   S   E.   Q      
--------------------------------------|---------------------------------------|
-----------13----------------13-------|---------------------------------------|
-------12b------12b-10---12b-----12br-|---L-10-12b-L-10b--L---10b--L----------|
--------------------------------------|--------------------------------12~----|
--------------------------------------|---------------------------------------|
--------------------------------------|---------------------------------------|


   S     E.  Q     S  E   S   S  E     S     
--------------------------------------------|
--------------------------------------------|
--10-10g11--------10-12--12pb---12pb--12pbr-|
--------------------------------------------|
--------------------------------------------|
--------------------------------------------|


  |---3---|                                    
  S   S   S  E   S  E   S    E   E   E   E     
----------------------------------------------|
----------------------------------------------|
--L-(12)-10-----10-12--12pbr-L--10--12--12pb--|
------------12--------------------------------|
----------------------------------------------|
----------------------------------------------|


   S    S  E   E   E     S    S  E   E   E    
---------------------------------------------|
---------------------------------------------|
--12pbr-L-10--12--12pb--12pbr-L-10--12--12b--|
---------------------------------------------|
---------------------------------------------|
---------------------------------------------|


            |---3---|                                                           
   E    E   S   S   S  E  S S  E   E   S S     E   E   E   E   E  E   E  S   S  
--------------------------x-x--------------|-----------------------------------|
--------------------------x-x-----12-------|--10------10-----------------------|
--10b------10-------------x-x-----12-------|--10------10-------9------9--------|
-------12--10h-12p-10---------10--10-------|--10--10--10--10--10-----10--------|
----------------------10--------------10---|---8---8---8---8---x------x--------|
-----------------------------------------0-|-------------------8--8---8--8s-10-|


   E   E   E   S  S  E   E   S  S  S   S     E   S  S  E   S  S  E  E   E   E   
----------10-----------------------------|------------------------------8------|
----------10----------------12-----------|------------------------------8------|
--11------11--------12------12-----------|-----------------------9------9------|
--12------12--------12--12--12-12-12s-10-|------10-10-10--10-10-10-----10------|
--------------------10--10--10-10-10s--8-|--/8---8--8--8---8--8--x---------14--|
------10------10-10----------------------|-----------------------8--8----------|


   S  S  E   E   S S  E   E   S  S  E      E   E   E   S  S  E   E   E  S  S  
---------------------------------------|-------------------------------------|
------------10-----0-------------------|------10-----------------------------|
--11-11-----11--12-0-12------12-12-12--|--10--10--10--10-10--9---9---9-------|
--12-12-----12--12---12------12-12-12--|--10--10--10--10-10-10--10--10-------|
---------------------10--10--10-10-10--|---8---8---8---8--8--x---x---x--0----|
--------10-----------------------------|---------------------8---8---8--0h-8-|


   E   E   E   S  S  S   S  S  S  E   E     
---------------------------10--------------|
--13--13--12--12--------10----13b-L--13pb--|
--12--12--12--12----12b--------------------|
--10--10--12--12p-0------------------------|
-------------------------------------------|
-------------------------------------------|


        |---3---|                             
  Q     E   E   E   Q     S    S    S    S    
-------10------10---L----10---10---10---10---|
--L--------13--13b--L----13pb-13pb-13pb-13pb-|
---------------------------------------------|
---------------------------------------------|
---------------------------------------------|
---------------------------------------------|


           |---3---|     |---3---|     |---3--|                   
   E   E   T   T   T  S  T   T   T  S  S  S   S  E    S  S  S  S  
--13--15--10h-13p-10----10h-13p-10----10----------------10-------|
---x-----------------13------------13----13p-10------10----13b-L-|
---0--------------------------------------------12b--------------|
-----------------------------------------------------------------|
-----------------------------------------------------------------|
-----------------------------------------------------------------|


                        |---3---|     |---3--|     |---3---|        
   Q        S  S  S  S  T   T   T  S  S   S  S     S    S  S  E     
-----------10------------------------------------------------------|
--13pb~-------13-10-13-10h-12p-10----13p-10------------------------|
----------------------------------12--------12br-(12)p-10----12br--|
----------------------------------------------------------12-------|
-------------------------------------------------------------------|
-------------------------------------------------------------------|


                                       tr               
                |---6---|   |---6---|                   
  S   S   S  S  S   S   S   S   S   S  Q.          E    
-------------------------------------------------------|
-------------------------------10h-12------------------|
--L-(12)-10----10h-12p-10h-12p-10h-12-10(12)------12b--|
------------12-----------------------------------------|
-------------------------------------------------------|
-------------------------------------------------------|


   E    Q      E   E   S   S    Q     
-------------------------------------|
-------------------------------------|
--12br--L----(12)-----12p-10br~-L----|
-------------------0-----------------|
-------------------------------------|
-------------------------------------|


    |-----3----|                          |---3---|   |---3---|          
    E     E    E    S  S  S   S   S   S   S   S   S   S   S   S S   S    
------------------------------------------------------------------------|
-------------------12---------------------------------------------------|
--(10)h--12p--10b--12----12p-10h-12p-10h-12p-10h-12p-10h-12br-L-L-(12)h-|
----------------------14------------------------------------------------|
------------------------------------------------------------------------|
------------------------------------------------------------------------|


   |---3--|                                                  
   S  S   S  S  S  T   T  T   T  T   T  T   T E  E   S  E.   
------------------------------------------------------------|
----------------------------------------------------13b-L---|
--10--------------------------------------------------------|
-----12p-10----10--------12p-10------------------0----------|
------------12----12p-10--------12p-10----------------------|
---------------------------------------13p-10-L-------------|


                                         |---3--|   
  E   E    E    E   S  S    S   S  S  S  S   S  S   
---------------13----------------------------------|
--L--13b--13b------13-13pb-----------10-13p-10-12h-|
---------------------------13p-12-12---------------|
---------------------------------------------------|
---------------------------------------------------|
---------------------------------------------------|


             |-----3----|             |---3---|       |----3---|    
   S  T   T  S     S    S  S  S  E    E   E   E       E    E   E    
-------------------------------------10------10--------------------|
--10-13p-10------------------10----------13------------------------|
------------12br-(12)p-10-------12b--------------13g(12)--12--12b--|
--------------------------12---------------------------------------|
-------------------------------------------------------------------|
-------------------------------------------------------------------|


  E  E   S  E.  Q    E   S  S  
------------------------------|
--------13-13---L----L--------|
--L--L------------------10b-L-|
------------------------------|
------------------------------|
------------------------------|


                                       |---3---|   
    E   E   S  S   S  S  S  S   S  S   E   E   E   
------------------------10-----10-----10--13--15--|
---------------------10----13b----13b-10----------|
--(10)--------10h-12------------------------------|
--------0--12-------------------------------------|
--------0-----------------------------------------|
--------------------------------------------------|


             |-----3----|    |---3---|   
   H         E   E      E    E   E   E   
--15b--------L--15br--(15)--13--15b--L--|
----------------------------------------|
----------------------------------------|
----------------------------------------|
----------------------------------------|
----------------------------------------|


   S    E.   Q     S    S    E   E   E   
--15pb-13b---L----15pb-15pb-13--15--13--|
------------------------------------15--|
----------------------------------------|
----------------------------------------|
----------------------------------------|
----------------------------------------|


   Q.       E    E.    T    T  S  S   E   
--13~------15br--L---(15)p-13-15-13b-----|
-------------------------------------15--|
-----------------------------------------|
-----------------------------------------|
-----------------------------------------|
-----------------------------------------|


                                                   \2/                    
                                    |----3---|                            
    E    E    E   E   E   E    E    S    S   S     H.               Q     
-----------------10--10------------------------|-------------------------|
--(15)S--0-----------10--13br--L--(13)p-10h-13-|--10(13)------------L----|
------------/12--------------------------------|-------------------------|
-----------------------------------------------|-------------------------|
-----------------------------------------------|-------------------------|
-----------------------------------------------|-------------------------|


  Q    H        Q       H        Q    E   E    
---------------------|------------------------|
--L----L--------L----|--L--------L----L--13b--|
---------------------|------------------------|
---------------------|------------------------|
---------------------|------------------------|
---------------------|------------------------|


   S  S  S  S   S  S  S   S  S   S  S    S    E    E   
--10--------------10-----10-----10-10---10------------|
-----13-10-----10--------10-----10-10---10------------|
-----------12b-------12b----12b----12pb-12pb-12pb-----|
---------------------------------------------------0--|
------------------------------------------------------|
------------------------------------------------------|


  E  S  S  E   S  S  E   E   E   S  S  
--------------------------------------|
--------------------------------------|
--------------------------------------|
----------12--10-10-------------------|
-------10-10--10-10-------------------|
--8--8--------------10--10--10--10-10-|


              |-3-|  |---3---|                    
   E   S   S  E   S  S   S   S  E   E   E   S  S  
-------------------------------------------------|
-------------------------------------------------|
--12--12p-10-------------------------------------|
--12--12p-10-----10-12p-10h-12-----12--12--------|
--10--10-----12---------------------x---x--------|
-------------------------------10--10--10--10-10-|


   E   S S  E   E   S   S  E   S   S  E   
--------------------------10---------10--|
--13--13---------------------------------|
--12--12-0-12--12--10h-11-----10h-11-----|
--10--10---12--12------------------------|
-----------10--10------------------------|
-----------------------------------------|


   E   E   E   S   S  S  S   S  S  S   S E   
---------------------14--------14-----------|
--------------------------------------------|
--12----------12s-14----12s-14----13s-14-0--|
--12--10------------------------------------|
--10--10------------------------------------|
----------10--------------------------------|


   E   S  S  S  S  S   S  S  S   S  S  S   S  E   
-------------------------10--------10------------|
--13---------------------------------------------|
--12--12-12-12-12-10h-11----10h-11----10h-11-11--|
--10--------12-12--------------------------------|
------------10-10--------------------------------|
-------------------------------------------------|


   E  S S E   S   S  S  S   S  S  S   S  S  S  
--------------------14--------14--------14----|
----------------------------------------------|
--12--x-x----12s-14----12s-14----12s-14----12-|
--12--x-x-0---0-------------------------------|
--10------------------------------------------|
----------------------------------------------|


   E   S S  E   S   S  S  S   S  S  S   S  S  S  
----------------------10--------10--------------|
--13--13----------------------------------------|
--12--12-0-12--10h-11----10h-11----10h-11-11-12-|
--10--10---12-----------------------------------|
-----------10-----------------------------------|
------------------------------------------------|


   E   S  S  E   S   S  S  S   S  S E   E   
-----------------------14--------14-L------|
-------------------------------------------|
--12--10-10-----12s-14----12s-14-----------|
--12--10-10--------------------------------|
--10-----------------------------------12--|
------------10-----------------------------|


   E   E  S  S  E   E   E  S   S  E       S   S   E  E   E   E   E   S  S  E   
--------------------------------------|---------------------------------------|
--------------------------------------|----------10--L------------------------|
------10--L------------10--Lb---------|--12-(10)-10--L----------10~--L--------|
------------10-12-------------10-12~--|--12-------------12-------------10-12--|
--------------------------------------|---------------------------------------|
--10---------------10-----------------|---------------------10----------------|


   S   S   E  S  S  S  S  E   E  S  S  S  S  
--------------------------------------------|
--------------------------------------------|
----------10--L--------------12--L-10-10-10-|
-----(12)-10--L-12-12-12-12-----------------|
--------------------------------------------|
--10----------------------------------------|


   S  S   E  S  S  S  S  S  S  E  S   S  S  S  
----------------------------------------------|
-----(0)--------------------------------------|
--12--------------------------10--Lb----------|
--12-----10--L-12-12-12-12-12--------12-12-12-|
-------------------x--x--x--x-----------------|
------------------10-10-10-10-----------------|


   S  S  E  S  S  S  S S S  E  S   S  S  S  
-------------------------------------------|
-------------------------------------------|
---------------------------10--Lb----------|
--12-12-------12-12-12-0-0--------10-10-10-|
--------10--L------------------------------|
--------10--L------------------------------|


   S  S  E  S  S  S  S  E   E  S   S  S  S  
-------------------------------------------|
-------------------------------------------|
---------------------------10--Lb----------|
--10-10-10--L-12-12-12------------10-10-10-|
---0---------------------------------------|
-----------------------10------------------|


   S  S  E  S  S  S  S  S  S  E  S  S  E      E   E  S  S  E  E.  S E   E   
-------------------------------------------|-------------------------------|
-------------------------------------------|-------------------------------|
-----------------------------12--L-12-10~--|--L----------------------------|
--10-10-10--L-12-12-12-12-10--0--L---------|-----10--L-10-10--9---9-9--10--|
---0---------------------------------------|-------------------------------|
-------------------------------------------|-------------------------------|


  S  S  E  S S  E   E   S S E   S S    S S  E  S  S  E   E   S S S S  E   
------------------------------------|------------------------------------|
------------------------------------|----0-------------------------------|
------------------------------------|-------------------10--10-9-L-9-12--|
----10-12--L-9-12--10--10-9-L--10---|--0---12--L-10-12---------------12--|
--0-------------------------------0-|--0---------------------------------|
----------------------------------0-|------------------------------------|


  S   S  S  S S  S  E  E  S S S S  S  S  
----------------------------------------|
----------------------------------------|
----------------12----------------------|
--0h-10-10-10-L-12-10--9--9-9-L-9-10p-0-|
----------------------------------------|
----------------------------------------|


  S   S  E  S  S  S  S  S  S  E  S   S  S  S  
---------------------------------------------|
---------------------------------------------|
------------------------x----10--Lb----------|
--0h-10-12--L-10-12-12-10-10--------10-12-12-|
---------------------------------------------|
---------------------------------------------|


   S  S  E  S   S  E   S  S  E  S   S  E   
------------------------------------------|
----------------------------10--L---------|
--------10--Lb--------------10--Lb--------|
--10-10--------10-12--10p-0--------10-12--|
------------------------------------------|
------------------------------------------|


   S  S  E  S   S  S  S S   S  E  S   E.   
------------------------------------------|
------------------------------10----------|
--------10--Lb----12----------10--Lb------|
--10-10--------10-12-10-0h-10--------10---|
------------------------------------------|
------------------------------------------|


   E.   S S  S  E  E   E  S  S  S  S     S  S  E   S  S  S   S  
-------------------------------------|-------------------------|
-------10-L--0-----------------------|-------------------------|
-------10-Lb-0-----0-----------------|------------------10h-12-|
--12-----------10--0--10--L-12-12-10-|--10-12-12--12-12-10h-12-|
-------------------0-----------------|-------------------------|
-------------------------------------|-------------------------|


   E   E   E   E   S  S  S  S  E   S  S  
----------------------------------------|
------------------------------12--12-12-|
------------------------------12--12-12-|
------------------------------12--12-12-|
-------------------------------x---x--x-|
--10--10--10--10--10-10-10-10-10--10-10-|


   E   S  S  E   E   E   E   E      E       E.    S  E   E   E   E   E   E    
----------------------------10----------|------------------------------------|
--10------------------------13br--(13)--|--10~-------------------------------|
--10-------------------------x----------|--10~----------------------12--12b--|
--10-------------------------0----------|--------12---------12--12---x---x---|
---x------------------------------------|--------------------x---x---x---x---|
--10--10-10-10--10--10--10--------------|-----------10--10--10--10--10--10---|


   E   E   E   E   E   E   E   S  S  
------------------------------------|
------------------------------------|
--10--------------------------------|
---x------12--12--12--12--12--12-12-|
---x---x---x---x---x---x---x---x----|
--10--10--10--10--10--10--10--10----|


   S  S  S  S  E   S S  S S  E      E   E   
-------------------------------------------|
--10-12-10----10--12---------------10--12--|
--10-12-10----10--12------------10g11--12--|
---x-----------------0----0---------x------|
---x-----------------0----0---------x------|
--10-------10----------10---10-----10------|


   S  S  S  S  E   E   S  S  S  S  E   S   S  
---------------------------------------------|
--10-12-10----10------------10----10---------|
--10-12-10----10------------10----10---------|
---x-------12--x--12---------x-12--x--12p-10-|
---x-----------x-------------x-----x---------|
--10----------10------10-10-10----10---------|


   S  S   S  S  E   S S  S  S   S  S  S  S  E   
-----------------------------------------------|
-----12p-10----10--12------12p-10----12-10-----|
-----12--10----10--12------12p-10----12-10-----|
------------12--------------------12-------12--|
----------------------0---------------------x--|
--10--------------------10-----------------10--|


   S  S  S  S  S  S  E   S S  E   E   E   
-----------------------------------------|
--12-10----12-------10-------------------|
--12-10----12-10----10-------------------|
--------12-------12-----12---12--12--12--|
-------------------------x-0--x---x---x--|
------------------------10---10--10--10--|


   S  S  S  S  S  S  E    E   Q     E   
---0-----------------------------------|
---x----------------10-----------------|
--12-10----12-10----10b----------------|
--------12-------12------12------------|
--------12-----------------------------|
-----------------------------10----10--|


   S  S S  S  S S  E    E   S  S  E   E   
---0-------------------------------------|
---x------------0------------------------|
--12-10---12-10---10~--------------------|
--------0--------------12----------------|
-----------------------------------------|
---------------------------10-10-10--10--|


   S  S S  S  S S  E    E   E   E   S  S     Q     E   S  S  E   E   E   E   
-----------------------------------------|----------------------------------|
--------------------------------------13-|--13------------------------------|
--12-10---12-10---10~-----------------12-|--12----12------------------------|
--------0-------0------12----------------|--------12------------------------|
-----------------------------------------|--------10--10--------12--12--12--|
---------------------------10--10--10----|---------------13-10--10--10--10--|


   E   S S  E   E   E   E   E   S S     E   S S  E   S  S  E   E   E   E   
------------------------------------|-------------------------------------|
------------------------------------|--13--13-----------------------------|
----------------------------------0-|--12--12-0-12------------------------|
--12--12-0------------------------0-|--10--10---12--12--------------------|
--10--10-------12-------------------|-----------10--10--------12--12--12--|
-----------10--10--10--10--10--10---|------------------13-10--10--10--10--|


   E   S  S  E   E   E   E   E   S S     E.    S  E     E     S  S  E   E   E   
-------------------------------------|-----------------------------------------|
--12-------------------------------x-|--12----12-------------------------------|
--12-------------------------------x-|--12~---12-12pb--12pb--10----------------|
--12---------------------------------|--------------------------12-----10--12--|
--10--10--------12--12--12--12--12---|-----------------------------12----------|
---------13-10--10--10--10--10--10---|-----------------------------------------|


   E.   S  E   S      S   S  S  E   E   S   S  
----------------------------------------------|
----------------------------------------------|
--10---10-12--12pbr-(12)-10-------------------|
----------------------------12-----10--12p-10-|
-------------------------------12-------------|
----------------------------------------------|


   E.   S    E     S      S   S  S  E   E   E   
-----------------------------------------------|
-----------------------------------------------|
--12---12pb-12pb--12pbr-(12)-10----------------|
--------------------------------12-----10--12--|
-----------------------------------12----------|
-----------------------------------------------|


   E.   S  E   E     S   S   E   S   S  S  S  
---------------------------------------------|
--------------13pbr--L-(13)-10---------------|
--10---10-12--(0)---------------12b-12-10-12-|
------------------------------------------12-|
---------------------------------------------|
---------------------------------------------|


   S  S  S  S  S  S  E    E   E   E   E   
-----------------------------------------|
-----------------------------------------|
--12-10----12-10----10~------------------|
--------12-------12------12--------------|
-----------------------------------------|
-----------------------------10--10--10--|


   S  S  S  S  S  S  S  S  E  E   E   E   
-----------------------------------------|
--------------12-------------------------|
--10-12-10-12-12-10-10-11----------------|
--------------------------12--0----------|
------------------------------0----------|
------------------------------0--10--10--|


   S  S  S  S  S  S  E    E   E   E   E   
-----------------------------------------|
-----------------------------------------|
--12-10----12-10----10~------------------|
--------12-------12------12--------------|
-----------------------------------------|
-----------------------------10--10--10--|


   S  S  S  S  S  S  E    E    E    E   E      E.   S  E  S S  H         
-------------------------------------------|----------------------------|
-------------------------------------------|--13----------0-0-----------|
--12-10----12-10----10~--------------------|--12---12-12----------------|
--------12-------12------12~--12~--12~-----|-------12-12----------------|
----------------------------------------0--|----------10----------------|
-------------------------------------------|------------------10--------|


   E   S  S  E   E   Q.      E      E.   S  E     S      S   S  S  E    E   E   
--------------------------------|----------------------------------------------|
--------------------------------|----------------------------------------------|
--------------------------------|--12---12-12pb--12pbr-(12)-10-----------------|
--12--12------------------------|------------------------------12------10--12--|
--10--10------------------------|---------------------------------12~----------|
---------13-10--10--10------10--|----------------------------------------------|


   E.    S  E   S      S   S  S  E    E   E   
---------------------------------------------|
---------------------------------------------|
--10~---10-12--12pbr-(12)-10-----------------|
-----------------------------12------10--12--|
--------------------------------12~----------|
---------------------------------------------|


   S  S  S  S  S  S  E   E    E    E    E    
--------------------------------------------|
-----------12-------10----------------------|
--12-10----12-10----10----------------------|
--------12-------12-----12~--12~--12~--12~--|
--------------------------------------------|
--------------------------------------------|


   S   S  S  S   S  S  S   S  S  S   S  S  S   E   S   
------------------------------------------------------|
--12--------12--------12--------------------------12--|
--12p-10----12p-10----12p-10----12p-10----12p-10--12h-|
---------12--------12--------12--------12-------------|
------------------------------------------------------|
------------------------------------------------------|


   S  S  S   S  S  S   S  S  S   S  S  S   S  S  S   S  
-------------------------------------------------------|
--------12--------12--------12--------12--------12-----|
--10----12p-10----12p-10----12p-10----12p-10----12p-10-|
-----12--------12--------12--------12--------12--------|
-------------------------------------------------------|
-------------------------------------------------------|


  S  S   S S  S   S S  S   S S  S   S S  S   S S  
-------------------------------------------------|
----12-------12----------------------------------|
----12p-10---12p-10---12p-10---12p-10---12p-10---|
--0--------0--------0--------0--------0--------0-|
-------------------------------------------------|
-------------------------------------------------|


   S     S    S S  S      S    S S  S      S    S S  E    S S  
--------------------------------------------------------------|
--------------------------------------------------------------|
--12br-(12)p-10---12pbr-(12)p-10---12pbr-(12)p-10---12p--10---|
--------------------------------------------------------------|
--------------------------------------------------------------|
--------------------------------------------------------------|


   E    S S  E    S S  S   S  S   S  
--------------------------10-----10-|
-----------------------------13b----|
--12p--10---12p--10---12b-----------|
------------------------------------|
------------------------------------|
------------------------------------|


   |-----3----|                                         
   T     T    T  S  S  S  S  S  S   S  S  S  S  Q    S  
-------------------------------------------------------|
-------------------------------------------------------|
--12br-(12)p-10----10----------------------------------|
----------------12----12-10-12-10b---------------------|
-----------------------------------12-11-10------------|
--------------------------------------------13-10----L-|


  H        Q        E    S  S  
------------------------------|
------------------------------|
------------------------------|
------------------------------|
----------------10g12s--10s-9-|
--L---------------------------|


  S   S  S   S  S   S   S   S   S   S  S  S  Q        W                 
---------------------------------------------------|-------------------|
---------------------------------------------------|-------------------|
---------------------------------------------------|-------------------|
---------------------------------------------------|-------------------|
--Lh-10p-9h-10p-9h-10br-L-(10)p-8h-10p-8-----------|-------------------|
-----------------------------------------10p-8~----|--L----------------|


    fdbk                      
    <        >                
    E.   S   Q     H          
----------------------------||
--------(0)-----------------||
----------------------------||
----------------------------||
----------------------------||
--<>8-------17\-------------||




Duration Legend
---------------
W - whole
H - half
Q - quarter
E - 8th
S - 16th
T - 32nd
X - 64th
. - note dotted
|-n-|  - n-tuplets


comments
We did not receive enough feedback on this tab! Please rate:
print report bad tab
1 2 3 4 5
I want to post or [tab]
guest
You may want to rate the tab now too:
select rating
Please do not post tabs as comments. Select "correction" instead!