Oops, an error
Loading. Please wait.

Night Bird Flying Bass Tab

ver1
ver1

Whole song

Interactive

More versions @911Tabs.com
832 views 1 this week
no commentswrite comment
1 2 3 4 5
please rate
Autoscroll
+/-
esc
set tempo
stop
Hey! There's an official Ultimate Guitar app which is ideal
for learning songs when you're away from computer. Get the app
WARNING: You are trying to view
                                    content from Ultimate-Guitar.com
                                    in an unauthorized application,
                                    which is prohibited.

                                    Please use an official Ultimate
                                    Guitar Tabs application for iPhone,
                                    iPad or Android to access legitimate
                                    chords, guitar, bass, and drum tabs
                                    from Ultimate-Guitar.com database.

                                    Type "ultimate guitar tabs" in Apple
                                    App Store's or Android Market's
                                    search to find the application.
#----------------------------------PLEASE NOTE---------------------------------#
#This file is the author's own work and represents their interpretation of the #
#song. You may only use this file for private study, scholarship, or research. #
#------------------------------------------------------------------------------##

                          NIGHT BIRD FLYING (Bassline)
                           As recorded by Jimi Hendrix
                    (From the 1998 Album EXPERIENCE HENDRIX)

Words and Music by Jimi Hendrix

Gtr I (Eb Ab Db Gb) - 'Bass'
Gtr II (Eb Ab Db Gb Bb Eb) - 'Guitar 4'

 Intro
  Moderate Rock Q=108
       N.(E6)            (D6)
 4/4
  Gtr I
  Q    E E E E E E E E   E E E E E E E E
|----|---9---9---9---9-|---7---7---------|
|----|-----------------|-----------------|
|----|-7---7---7---7---|-5---5---5-------|
|----|-----------------|-----------7-5-4-|
|
| Gtr II
| Q    W                 W
|----|-----------------|-----------------|
|----|-----------------|-----------------|
|----|-----------------|-----------------|
|----|-----------------|-----------------|
|----|-----------------|-----------------|
|----|-----------------|-----------------|


  (F#6)             (G6)    (A6)
  E E E E E E E E   E E E E E  E  E  E
|-----------------|---------------------|
|---4---4---4---4-|---5---5----7--------|
|-----------------|---------------------|
|-2---2---2---2---|-3---3---5-----5--7--|
|
| W                 H       E  E  E  E
|-----------------|---------------------|
|-----------------|---------------------|
|-----------------|-----------16-16-16--|
|-----------------|---------------------|
|-----------------|---------------------|
|-----------------|---------------------|


  E           E7/A
   E    E E E E          E      E            E
|--------------------------------------------------|
|--------------------------------------------------|
|-------------------------------5------------7-----|
|--0----0-3-4-5----------5-------------------------|
|
|  ~~~~~
|  H          S  S      +S   S  S      +S   +S   S
|-17b19---------17pb19r(17)-16-17b19==(17)r(17)-16h|
|--------------------------------------------------|
|--------------------------------------------------|
|--------------------------------------------------|
|--------------------------------------------------|
|--------------------------------------------------|


  E               E7/A                  E7             E7/A
   E     E  S S E E  E     E     E       E      E  E E   E        E       E  E
|-------------------------------------|-----------------------------------------|
|-------------------------------------|-----------------------------------------|
|--------------------------5-----7----|-----------------------------------5--7--|
|--0-----0--3-x-4-5--5----------------|--0------0--3-4---5--------5-------------|
|
|           ~~                                  ~~~~
|                                                        |-----3------|
|  S  S  E  Q     E  S  S  S  S  S  S    E     +Q.      +E   E       +E   E  E
|-17p16-------------------------------|-----------------------------------------|
|-------17----------------17-------17-|-19b21-(19)-----(19)-19b21r==(19)-17-----|
|----------16-------16h18----16h18----|-------------------------------------18--|
|-------------------------------------|-----------------------------------------|
|-------------------------------------|-----------------------------------------|
|-------------------------------------|-----------------------------------------|


  N.(D)
  a  E      E    E     S    S  S S E     E  E
|---------------------------------------------||
|---------------------------------------------||
|-7p=5------5----5-------------5-5-5-----6--6-||
|----------------------7----5-----------------||
|
|           ~~~~~~~~           ~~
|                |---3----|
|    E     +E   +E   E    E    Q      a  Q
|---------------------------------------------||
|---------------------------------------------||
|---16b18-(16)-(16)-16--------16-----16h18\---||
|------------------------18-------------------||
|---------------------------------------------||
|---------------------------------------------||


 Verse
  N.C.
  E E E E E E E E   E E E E E E E E
|---9---9---9---9-|---7---7---------|
|-----------------|-----------------|
|-7---7---7---7---|-5---5---5-------|
|-----------------|-----------7-5-3-|
|
| W                 W
|-----------------|-----------------|
|-----------------|-----------------|
|-----------------|-----------------|
|-----------------|-----------------|
|-----------------|-----------------|
|-----------------|-----------------|


  Gtr I
  E E E E E E E E   E E E E E E E E   E E E E E E E E
|-----------------|-----------------|---------9---9-9-|
|-----------------|-----------------|-----------------|
|-------------5-7-|-------------5-7-|-----7-7---7-----|
|-0-0-3-4-5-5-----|-0-0-3-4-5-5-----|-0-0-------------|


  e S S E E  E E S S E   E E E E E E E E   E E E E E E E E
|-7-7-7-7-9-11-7-7-9-7-|-----------------|-----------------|
|----------------------|-----------------|-----------------|
|----------------------|-------------5-7-|-------------5-7-|
|----------------------|-0-0-3-4-5-5-----|-0-0-3-4-5-5-----|


  E E E E E E E E   E E E S S S E. E E   E E E E E E E E
|-----------------|--------------------|-----------------|
|-----------------|--------------------|-----------------|
|-------------5-7-|-5-5-5---3-5--------|-----------------|
|-0-0-3-4-5-5-----|-------5-----0--3-4-|-5-5-3-3-0-0---0-|


 2/4       4/4
  E E E E   W          +H     +E  E E E
|---------|----------|------------------|
|---------|----------|------------------|
|-----5-5-|-2--------|-(2)----(2)-2-0---|
|-3-3-----|----------|----------------3-|


  E E E E E E E E   E E E E E E E E   E E E E E E E E
|-----------------|-----------------|-----------------|
|-----------------|-----------------|-----------------|
|-------------5-7-|-------------5-7-|-------------5-7-|
|-0-0-3-4-5-5-----|-0-0-3-4-5-5-----|-0-0-3-4-5-5-----|


                                            Verse
  e e e S S e e e S S   e e e S S e e e e    E E E E E E E E
|---------------------|-------------------||---9---9---9---9-|
|---------------------|-------------------||-----------------|
|-5-5-5-0-3-5-5-5-0-3-|-5-5-5-0-3-5-5-6-6-||-7---7---7---7---|
|---------------------|-------------------||-----------------|


  E E E E E E E E   E E E E E E E E   Q  E E E E E E
|---7---7---------|-----------------|----------------|
|-----------------|-----------------|----------------|
|-5---5---5-------|-------------5-7-|------------5-7-|
|-----------7-5-3-|-0-0-3-4-5-5-----|-0--3-4-5-5-----|


  E E E E E S S E E   E S S E E E E E E   E E E E E E E E
|-----9-9---9-9---9-|---7-7---7---------|-----------------|
|-------------------|-------------------|-----------------|
|---------7-----7---|-5-----5---5-------|-------------5-7-|
|-0-0---------------|-------------7-5-3-|-0-0-3-4-5-5-----|


  E E E E E E E E   E E E E E E E E   E E E S S S E. E E
|-----------------|-----------------|--------------------|
|-----------------|-----------------|--------------------|
|-------------5-7-|-------------5-7-|-5-5-5-0-3-5--------|
|-0-0-3-4-5-5-----|-0-0-3-4-5-5-----|-------------0--3-4-|


                   2/4
  e E E E E E E E   E E E E
|-----------------|---------|
|-----------------|---------|
|-----------------|-----5-5-|
|-5-5-3-3-0-0---0-|-3-3-----|


 4/4
  W          +H     +E  E E E
|----------|------------------|
|----------|------------------|
|-2--------|-(2)----(2)-2-0---|
|----------|----------------3-|


  E E E E E E E E   E E E E E E E E   E E E E E E E E
|-----------------|-----------------|-----------------|
|-----------------|-----------------|-----------------|
|-------------5-7-|-------------5-7-|-------------5-7-|
|-0-0-3-4-5-5-----|-0-0-3-4-5-5-----|-0-0-3-4-5-5-----|


  e e e S S e e e S S   e e e S S e e e e   E S S E E E E E E
|---------------------|-------------------|---9-9---9---9---9-|
|---------------------|-------------------|-------------------|
|-5-5-5-0-3-5-5-5-0-3-|-5-5-5-0-3-5-5-6-6-|-7-----7---7---7---|
|---------------------|-------------------|-------------------|


  E E E E E E E E   E E E S S E E E E
|---7---7---------|-------------------|
|-----------------|---4---4-4---4---4-|
|-5---5---5-------|-------------------|
|-----------7-5-4-|-2---2-----2---2---|


                    Guitar Solo
  E E E E E E E E    E S S S S E e e S S E
|-----------------||-----------------------|
|---5---5---7-----||-----------------------|
|-----------------||-------5-5---5-5-7-5---|
|-3---3---5---5-5-||-0-5h7-----7---------7-|


  E S S S S E e E S S E   E S S S S E e e S S E
|-----------------------|-----------------------|
|-----------------------|-----------------------|
|-------5-5---5-5-7-5---|-------5-5---5-5-7-5---|
|-0-5h7-----7---------7-|-0-5h7-----7---------7-|


  E S S S S E e E S S E   E S S S S E e E S S E   E E S S E e E S S E
|-----------------------|-----------------------|---------------------|
|-----------------------|-----------------------|---------------------|
|-------5-5---5-5-7-5---|-------5-5---5-5-7-5---|-----4-4---4-4-5-4---|
|-0-5h7-----7---------7-|-0-5h7-----7---------7-|-0-5-----5---------5-|


  E S S S S E e E S S E   E E S S E e E S S E
|-----------------------|---------------------|
|-----------------------|---------------------|
|-------5-5---5-5-7-5---|-----4-4---4-4-5-4---|
|-0-5h7-----7---------7-|-0-5-----5---------5-|


  E S S S S E e E S S E   E E S S E e E S S E
|-----------------------|---------------------|
|-----------------------|---------------------|
|-------5-5---5-5-7-5---|-----4-4---4-4-5-4---|
|-0-5h7-----7---------7-|-0-5-----5---------5-|


  E S S S S E e E S S E   E E S S E e E S S E
|-----------------------|---------------------|
|-----------------------|---------------------|
|-------5-5---5-5-7-5---|-----4-4---4-4-5-4---|
|-0-5h7-----7---------7-|-0-5-----5---------5-|


  S S S S E E S S S S E E   S S S S E S S S E S E S S
|-------------------------|---------------------------|
|-------------------------|---7-5---5-7-5-7-7-7-5-----|
|---7-5---5-7---7-5---5-7-|-0-----7---------------7p5-|
|-0-----7-----0-----7-----|---------------------------|


  S S S S E E S S S S E E   S S S S E S S S E S E S S
|-------------------------|---------------------------|
|-------------------------|---7-5---5-7-5-7-7-7-5-----|
|---7-5---5-5---7-5---5-7-|-0-----7---------------7p5-|
|-0-----7-----0-----7-----|---------------------------|


  S S S S E E S S S S E E   S S S S E S S S E S E S S
|-------------------------|---------------------------|
|-------------------------|---7-5---5-7-5-7-7-7-5-----|
|---7-5---5-7---7-5---5-7-|-0-----7---------------7p5-|
|-0-----7-----0-----7-----|---------------------------|


  S S S S E E S S S S E E   S S S S E S S S E S E S S
|-------------------------|---------------------------||
|-------------------------|---7-5---5-7-5-7-7-7-5-----||
|---7-5---5-7---7-5---5-7-|-0-----7---------------7p5-||
|-0-----7-----0-----7-----|---------------------------||


 Guitar Interlude
  N.(E6)                (D6)
  Gtr I
  E E E   E   E E E E   E E   E E E E E E
|---9-----9-----9---9-|---7-----7---------|
|---------------------|-------------------|
|-7---7-------7---7---|-5-----5---5-------|
|---------------------|-------------7-5-4-|
|
| Gtr II
|             ~                   ~
| E E S S S S H         e E a E e H
|---------------------|-------------------|
|---------------------|-------------------|
|---------------------|-------------------|
|-------------2-------|---------7---------|
|---------2h4---------|-5-5-7s9---5-------|
|-0-0-2h4-------------|-------------------|


  (F#6)                        (G6)         (A6)
    E E   E E E   E   E    E    E E   E E   E E   E S S
|----------------------------|--------------------------|
|-----4-----4-----4--------4-|----5-----5-----7---------|
|----------------------------|----------------------5-6-|
|---2-----2---2-------2------|--3-----3-----5-----5-----|
|
| a e E a E e E.    S S E.      e E a E S S e e a E E
|----------------------------|--------------------------|
|----------------------------|--------------------------|
|----------------------------|--------------------------|
|-------------6b8---4-6------|--------------------------|
|-----------4-----------6\---|----------5h7---------7---|
|-0s2-2-4s6------------------|-/3-3-5s7-----5-5-7s9-----|


  (E)                                 (D6)
    E S S E S S  S    S E S S   E     E S S    E  S S E E  E    E
|-----9-9---9-9---------9-9-9---9---|---7-7-------7-7----------------|
|-----------------------------------|--------------------------------|
|---7-----7------7----7-------------|-5--------5------5--------------|
|-----------------------------------|-------------------7--5----4----|
|
| a E E   E E    Q.            +E     e E   a  E  E   E E  E    S S
|-----------0-----------------------|--------------------------------|
|---------0-------------------------|------------10-------10---------|
|-----4---------11b13---------(11)\-|-7-7---9s11------7-7--9b11-7-7\-|
|-4s6-------------------------------|--------------------------------|
|-----------------------------------|--------------------------------|
|-----------------------------------|--------------------------------|


  (F#6)
  E S S E     S  S  S    S S S S S   S  S
|------------------------------------------|
|---4-4-------4--4---------4-4-------4--4--|
|------------------------------------------|
|-2-----2-----------2----2-----2-2---------|
|
| E E   E    +E    +Q          S E     +S
|------------------------------------------|
|------------------------------------------|
|------------------------------------------|
|-4-4---6b8==(6)r==(6)b8---------8b9---(8)-|
|------------------------------------------|
|------------------------------------------|


  (G6)               (A6)
  E S    S  E   S  S E S    S  S   S S S
|----------------------------------------|
|---5----5------5--5---------------------|
|----------------------4----4--5---5-6-6-|
|-3---------3--------5-------------------|
|
| E E      +E  +E    E E      +Q
|----------------------------------------|
|----------------------------------------|
|----------------------------------------|
|---7b9====(7)r(7)-----9b11---(9)\-------|
|----------------------------------------|
|----------------------------------------|


  (E)                                  (D)
    E S S S S S S   S S S S S S S  S   E   S S S S S S S S E   E   E
|-----9-9-----9-9-------9-9-9-9-9--9-|-----7-7-7-7-7-7-----------------|
|------------------------------------|---------------------------------|
|---7-----7-7-------7-7--------------|-5---------------5-5-------------|
|------------------------------------|---------------------7---5---4---|
|
| a E S S S S S S a E   S S S S E      S S S S S S S S S S S S S S S S
|------------------------------------|---------------------------------|
|------------------------------------|---------------------------------|
|-----4---4-4-6-4-------4---4-4-6\---|-----2---2-4-2-------2---2-2-4---|
|-4s6---6---------4s6-----6----------|-2-4---4-------4-2h4---4-------4-|
|------------------------------------|---------------------------------|
|------------------------------------|---------------------------------|


  (F#6)                            (G6)            (A6)
   E S S S S S S S S S S S S S S     E S S S S S S E    S S S S S  S
|--------------------------------|-----------------------------------|
|----4-4-----4-4-----4-4-----4-4-|-----5-5-----5-5-------------------|
|--------------------------------|--------------------------4-4-5--6-|
|--2-----2-2-----2-2-----2-2-----|---3-----3-3-----5----5-5----------|
|
|  E S S S S S S S S S S S S S S   a e S S E   S S S  S S S S S E
|--------------------------------|-----------------------------------|
|--------------------------------|-----------------------------------|
|----6---6-6-8-6-----6---6-6-8-8-|-----7---7---9-7------9-9-9-9-9\---|
|-/8---8---------6s8---8---------|-7s9---9---------9s11--------------|
|--------------------------------|-----------------------------------|
|--------------------------------|-----------------------------------|


  (E)
   E      S  S   E          S      S  E      S      S   E          E
|---------9--9--------------9------9---------9------9------------------------|
|----------------------------------------------------------------------------|
|--7-------------7--------------------7-----------------7----------7---------|
|----------------------------------------------------------------------------|
|
|  E      S  S   S      S   S      S  S  S   S      S   S      S   S      S
|----------------------------------------------------------------------------|
|-12-----12-12--12-----12--12-----12-12-12--12-----12--12-----12--12-----12--|
|-14b16==14-14r-14b16==14r-14b16==14-14-14r-14b16==14r-14b16==14r-14b16==14r-|
|----------------------------------------------------------------------------|
|----------------------------------------------------------------------------|
|----------------------------------------------------------------------------|


  (D)
   E         S   S      E      S      S   E         E          E   E
|------------7---7-------------7------7---------------------------------|
|-----------------------------------------------------------------------|
|--5--------------------5-----------------5-----------------------------|
|---------------------------------------------------7----------5---4----|
|
|  S      S  S   S      S  S   S      S   S      S  S   S      E.     S
|-----------------------------------------------------------------------|
|-12-----12-12--12-----12-12--12-----12--12-----12-12--12-----12\----14-|
|-14b16==14-14r-14b16==14-14r-14b16==14r-14b16==14-14r-14b16==14r\------|
|-----------------------------------------------------------------------|
|-----------------------------------------------------------------------|
|-----------------------------------------------------------------------|


  (F#6)
   E         S   S      E      S      S  E     S  S  E  S  S
|------------------------------------------------------------|
|------------4---4-------------4------4--------4--4-----4--4-|
|------------------------------------------------------------|
|--2--------------------2----------------2-----------2-------|
|
|                                                    ~~~~~~
|  S      S  S   S      S  S   S      S  S  S  S  S  E  E
|------------------------------------------------------------|
|-14-----14-14--14-----14-14--14-----14-14-14-14-14-14-14----|
|-16b18==16-16r-16b18==16-16r-16b18==16-16-16-16-16-16-16r---|
|------------------------------------------------------------|
|------------------------------------------------------------|
|------------------------------------------------------------|


  (G6)                         (A6)
   E         S  S  S  S  S   S  E          S      S   S  S     S S
|------------------------------------------------------------------||
|------------5--5--------5---5-------------------------------------||
|-----------------------------------------------------4--4-----5-6-||
|--3---------------3--3---------5----------5------5----------------||
|
|  S      S  S  S  S  S  S   S  S      S   S      S   S  E.
|------------------------------------------------------------------||
|-15-----15-15-15-15-15-15--15-17-----17--17-----17--17-17---------||
|-17b19==17-17-17-17-17-17r-17-19b21==19r-19b21==19r-19-19pb21-----||
|------------------------------------------------------------------||
|------------------------------------------------------------------||
|------------------------------------------------------------------||


 Outro
  N.C.   (E7)
   E         E       E      E     E     E          E  E
|-------------------------------------------------------|
|-------------------------------------------------------|
|--7---------7-------5------5-----4-----4---------------|
|--------------------------------------------------7--7-|
|
|                                                  ~~~
|  S      S  S  +S   E      S  s  E     S  S       E  E
|-----------------------------15-12----12-12------12----|
|-17-----17-17--------------0----15b17-15-15pb17==15r-0-|
|-19b21==19-19r(19)-19pb21\-----------------------------|
|-------------------------------------------------------|
|-------------------------------------------------------|
|-------------------------------------------------------|


   E      E          S  S E  E      E      E             E
|-----------------------------------------------------------|
|-----------------------------------------------------------|
|--------------------7--7-7--5------5------4----------------|
|--0------0----------------------------------------------7--|
|
|  ~~~~~~            ~~~
|  E      S   S      E    E  E      S   S  S      S     +E
|-12-----12--12-----12------12-----12--12-12-----14b17-(14)-|
|-15b17==15r-15b17==15r-----15b17==15r-15-15pb17------------|
|-----------------------------------------------------------|
|-----------------------------------------------------------|
|-----------------------------------------------------------|
|-----------------------------------------------------------|


   E     E             S     S E  E      E          E   E
|----------------------------------------------------------|
|----------------------------------------------------------|
|----------------------7-----7-7--5------5----------4------|
|--0-----0----------------------------------------------7--|
|
|                                                   ~~~~~~~
|  E     S      S      E       E  E      S   S      E  +E
|-12----12-----12-----12-------x-12-----12--12-----12-(12)-|
|-15b17-15pb17-15pb16-15pb17---x-15b17==15r-15b17==15r(15)-|
|----------------------------------------------------------|
|----------------------------------------------------------|
|----------------------------------------------------------|
|----------------------------------------------------------|


   E      E          S  S  E  E      E      E           E
|--------------------------------------------------------------|
|--------------------------------------------------------------|
|--------------------7--7--7--5------5------4------------------|
|--0------0---------------------------------------------7------|
|
|                          PM
|  E      S   S     +E     e  E      S   S  S      E       +S
|-12-----12--12----(12)---15-12-----12--12-12-----15b17r==(15)-|
|-15b17==15r-15b17-(15)------15b17==15r-15-15pb17--------------|
|--------------------------------------------------------------|
|--------------------------------------------------------------|
|--------------------------------------------------------------|
|--------------------------------------------------------------|


   E      E     S   S  E  E      E     E        E
|-------------------------------------------------|
|-------------------------------------------------|
|---------------7---7--7--5------5-----4----------|
|--0------0-------------------------------------7-|
|
|                   ~~~
|  E      S  S  S   E.    E      S  S  S   E.
|------------------------12-----12-12-12----------|
|-15b17==15-15-15r-------15b17==15-15-15r-12------|
|------------------12---------------------14b16---|
|-------------------------------------------------|
|-------------------------------------------------|
|-------------------------------------------------|


   E      E     S   S    E  E      E      E        E
|----------------------------------------------------|
|----------------------------------------------------|
|---------------7---7----7--5------5------4----------|
|--0------0----------------------------------------7-|
|
|                                               ~~~
|  E      S  S  S   E.      E      S  S   S     E.
|-12-----12-12-12----------12-----12-12--------------|
|-15b17==15-15-15r-12------15b17==15-15r-------------|
|------------------14b16-----------------14b16-12----|
|----------------------------------------------------|
|----------------------------------------------------|
|----------------------------------------------------|


   E  E             S  S E    E      E     E   E
|--------------------------------------------------------|
|--------------------------------------------------------|
|-------------------7--7-7----5------5-----4-------------|
|--0--0----------------------------------------7---------|
|
|  E  S      S      S  E   S  E      S  S  E   S     +S
|-----------------------------------12-12-12-------------|
|-15-15pb16-15pb17-15-12---x-15b17==15-15-15r-12----(12)-|
|---------------------------------------------14b16r(14)-|
|--------------------------------------------------------|
|--------------------------------------------------------|
|--------------------------------------------------------|


   E      E     S   S     E  E      E      E       E
|----------------------------------------------------|
|----------------------------------------------------|
|---------------7---7-----7--5------5------4---------|
|--0------0----------------------------------------7-|
|
|  E      S  S  S   E.       E      S  S   S  E.
|-12-----12-12-12-----------12-----12-12--12-12------|
|-15b17==15-15-15r----------15b17==15-15r-15-15b17---|
|------------------16b18\----------------------------|
|----------------------------------------------------|
|----------------------------------------------------|
|----------------------------------------------------|


   E      E     S   S      E  E      E     E        E
|-----------------------------------------------------|
|-----------------------------------------------------|
|---------------7---7------7--5------5-----4----------|
|--0------0-----------------------------------------7-|
|
|  E      S  S  S   E.        E      S  S  S   E.
|-12-----12-12-12--15b15.5---12-----12-12-12--15b18---|
|-15b17==15-15-15r-----------15b17==15-15-15r---------|
|-----------------------------------------------------|
|-----------------------------------------------------|
|-----------------------------------------------------|
|-----------------------------------------------------|


   E      E     S  S    E  E      E     E       E
|-------------------------------------------------|
|-------------------------------------------------|
|---------------7--7----7--5------5-----4---------|
|--0------0-------------------------------------7-|
|
|  E      S   S S  E.      E      S  S  S  E.
|-12-----12--12---17b19---12-----12-12----19b21---|
|-15b17==15r-15-----------15b17==15-15r-----------|
|-------------------------------------------------|
|-------------------------------------------------|
|-------------------------------------------------|
|-------------------------------------------------|


   E         E     S  S    E  E      E      E    E
|--------------------------------------------------|
|--------------------------------------------------|
|------------------7--7----7--5------5------4------|
|--0---------0-----------------------------------7-|
|
|                                    ~~~~~~~~~~~~~~~
|  S      S  S  S  S  E.      E      S  S   Q
|-12-----12-12-12----12------12-----12-12--12------|
|-15b17==15-15-15r---15b17---15b17==15-15r-15b17---|
|--------------------------------------------------|
|--------------------------------------------------|
|--------------------------------------------------|
|--------------------------------------------------|


   E     E S S E   E   E       E   E   E   E  S  S E   E E     E E
|------------------------------------|-------------------------------|
|------------------------------------|-------------------------------|
|----------7-7-7---5---5-------4-----|--------7--7-7---5-5-----4-----|
|--0-----0-------------------------7-|-0---0---------------------7---|
|
|~~~~~~~~
|  H              +E   E      +Q       Q     +Q      a E S S a E S S
|-12-------------(12)-12-----(12)\---|---------------------------3-3-|
|-15b17==========(15)-15b17==(15)\---|---------------3h5-5-5-3h5-3-3-|
|------------------------------------|-------------------------------|
|------------------------------------|-5b9---(5)---------------------|
|------------------------------------|-------------------------------|
|------------------------------------|-------------------------------|


  E   E  S  S E E   E   E E   E   E  S  S E   E E   E E
|---------------------------|-----------------------------|
|---------------------------|-----------------------------|
|--------7--7-7-5---5---4---|--------7--7-7---5-5---4-----|
|-0---0-------------------7-|-0---0-------------------7---|
|
| Q     +S  S E E   E   E E   Q     +E    S S E S S E S S
|---------------------------|-----------------7-----------|
|-----------5-5-0---0-------|-------------5-5-9-----------|
|---------------2b3-2b3-0---|-------------------9-9-9-9-9-|
|-7b9---(7)---------------2-|-7b9---(7)-------------------|
|---------------------------|-----------------------------|
|---------------------------|-----------------------------|


  E   E  S  S E   E   E E E   E   E S    S  E E E E E
|---------------------------|-------------------------*|
|---------------------------|-------------------------*|
|--------7--7-7---5---5-4---|-------7----7--7-5-5-4---*|
|-0---0-------------------7-|-0---0-----------------7-*|
|
| Q     +E    S S E   E E E   Q     S   +S  E Q   Q
|---------------------------|-------------------------*|
|-------------5-5-----------|-------------------------*|
|---------------------------|-------------------------*|
|-7b9---(7)-------7b9-7-5-7-|-7b9---7b9r(7)-5---------*|
|---------------------------|-----------------7-------*|
|---------------------------|-------------------------*|


Duration Legend
---------------
W - whole; H - half; Q - quarter; E - 8th; S - 16th; T - 32nd; X - 64th; a - acciaccatura
+ - note tied to previous; . - note dotted; .. - note double dotted
Uncapitalized letters represent notes that are staccato (1/2 duration)
Irregular groupings are notated above the duration line
Duration letters will always appear directly above the note/fret number it represents the
duration for.  Duration letters with no fret number below them represent rests.  Multi-
bar rests are notated in the form Wxn, where n is the number of bars to rest for.  Low
melody durations appear below the staff

Tablature Legend
----------------
 h   - hammer-on
 p   - pull-off
 b   - bend
 pb  - pre-bend
 r   - bend release (if no number after the r, then release immediately)
 /\  - slide into or out of (from/to "nowhere")
 s   - legato slide
 S   - shift slide
  - natural harmonic
[n]  - artificial harmonic
n(n) - tapped harmonic
 ~   - vibrato
 tr  - trill
 T   - tap
 TP  - trem. picking
 PM  - palm muting
\n/  - tremolo bar dip; n = amount to dip
 \n  - tremolo bar down
 n/  - tremolo bar up
/n\  - tremolo bar inverted dip
 =   - hold bend; also acts as connecting device for hammers/pulls
 <>  - volume swell (louder/softer)
 x   - on rhythm slash represents muted slash
 o   - on rhythm slash represents single note slash

Misc Legend
-----------
 |  - bar
||  - double bar
||o - repeat start
o|| - repeat end
*|  - double bar (ending)
 :  - bar (freetime)
 $  - Segno
 &  - Coda
Tempo markers -  = BPM(8/16=s8/s16), where s8 = swing 8ths, s16 = swing 16ths


***************************************************************************************
* Generated using Power Tab Editor by Brad Larsen - http://powertab.guitarnetwork.org *
***************************************************************************************
comments
We did not receive enough feedback on this tab! Please rate:
print report bad tab
1 2 3 4 5
I want to post or [tab]
guest
You may want to rate the tab now too:
select rating
Please do not post tabs as comments. Select "correction" instead!