Oops, an error
Loading. Please wait.

Night Bird Flying Tab

ver1
ver1

Whole song

Interactive

More versions @911Tabs.com
8,311 views 12 this week
no commentswrite comment
1 2 3 4 5
excellent!
x 4
Autoscroll
+/-
esc
set tempo
stop
Hey! There's an official Ultimate Guitar app which is ideal
for learning songs when you're away from computer. Get the app
WARNING: You are trying to view
                                    content from Ultimate-Guitar.com
                                    in an unauthorized application,
                                    which is prohibited.

                                    Please use an official Ultimate
                                    Guitar Tabs application for iPhone,
                                    iPad or Android to access legitimate
                                    chords, guitar, bass, and drum tabs
                                    from Ultimate-Guitar.com database.

                                    Type "ultimate guitar tabs" in Apple
                                    App Store's or Android Market's
                                    search to find the application.
#----------------------------------PLEASE NOTE---------------------------------#
#This file is the author's own work and represents their interpretation of the #
#song. You may only use this file for private study, scholarship, or research. #
#------------------------------------------------------------------------------##

                                NIGHT BIRD FLYING
                           As recorded by Jimi Hendrix
                    (From the 1998 Album EXPERIENCE HENDRIX)

Words and Music by Jimi Hendrix
Transcribed by Brian Gevin

Gtr I (Eb Ab Db Gb Bb Eb) - 'Electric Guitar 1'
Gtr II (Eb Ab Db Gb Bb Eb) - 'Electric Guitar 2'
Gtr III (Eb Ab Db Gb Bb Eb) - 'Electric Guitar 3'
Gtr IV (Eb Ab Db Gb Bb Eb) - 'Electric Guitar 5'

 Intro
  Moderate Rock Q=108
              N.C.(E6)              (D6)
 4/4
  Gtr III
  a a Q         Q   Q   E  Q    E   Q    Q   Q   E S S
|-----xs====|===xs==xs==x-------xs|=xs===x-------------|
|-----xs====|===xs==xs==x--x/---xs|=xs===x---xs==x-xsx-|
|-----xs====|===xs==xs==x--x/---xs|=xs===x---xs==x-xsx-|
|---x-------|--------------x/-----|----------xs==x-xsx-|
|-x---------|---------------------|--------------------|
|-----------|---------------------|--------------------|
|
| Gtr II
|     S  E.     Q   Q   Q     Q     W
|--------xs=|===xS==xs==x\----0---|--------------------|
|-----------|-------xs==x\--------|-x\-----------------|
|-----------|---------------------|-x\-----------------|
|-----------|---------------------|-x\-----------------|
|-----------|---------------------|--------------------|
|-------(0)-|---------------------|--------------------|
|
| Gtr I
|             ~~~~~~~~~~~~~~~~~~~~~~~~~~~~~~~~~~~~~~~~~~
|     Q       a E E E E E  E  E E   E  E E E E E E E
|-----------|-----9---9----9----9-|----7---7---7---7---|
|-----------|---------------------|--------------------|
|-----------|-7s9---9---9-----9---|-7----7---7---7-----|
|-----------|---------------------|--------------------|
|-----------|---------------------|--------------------|
|-----------|---------------------|--------------------|


    (F#6)                        (G6)            (A6)
     W                            W
|---------------------------|---------------------------------|
|---------------------------|---------------------------------|
|----xs=====================|=====x/--------------------------|
|----xs=====================|=====x/--------------------------|
|----xs=====================|=====x/--------------------------|
|---------------------------|---------------------------------|
|
|    W                            W
|---------------------------|---------------------------------|
|----xs=====================|=====x/--------------------------|
|----xs=====================|=====x/--------------------------|
|----xs=====================|=====x/--------------------------|
|---------------------------|---------------------------------|
|---------------------------|---------------------------------|
|
|~~~~~~~~~~~~~~~~~~~~~~~~~~~~~~~~~~~~~~~~~~~~~~~~~~~~~~~~~~
| a  E  E  E  E  E  E  E  E    a  E   E  E  E  a  E  E  Q
|------11----11----11----11-|--------12----12-------14--------|
|---------------------------|---------------------------------|
|-7s11----11----11----11----|-11s12-----12----12s14----14\----|
|---------------------------|---------------------------------|
|---------------------------|---------------------------------|
|---------------------------|---------------------------------|


  E                     E7/A
  Gtr IV
   ~~~~~
   H                  S  S      +S  S  S      +S   +S  S
|--------------------------------------------------------|
|-10b12-----------------10pb12r(10)-9-10b12==(10)r(10)-9h|
|--------------------------------------------------------|
|--------------------------------------------------------|
|--------------------------------------------------------|
|--------------------------------------------------------|
|
| Gtr I
|  E    E a E  S   S  E          E     E            E
|---------2s4--------------------------------------------|
|-----------x--------------------------------------------|
|-------1-2s4-(0)-(0)------------4-----4-----------------|
|-------2------------------------x-----x-----------------|
|---------------------5----------5-----5------------5\---|
|--0-----------------------------------------------------|


  E                E7/A            E7                      E7/A
           ~                                ~~~~
                                                        |-----3------|
   S S E   Q     E S  S S S  S S    E      +Q.         +E   E       +E  E a  E
|--------------------------------|-------------------------------------------------|
|-10p9---------------------------|-------------------------------------------------|
|------9----------------9------9-|-11b13==(11)--------(11)-11b13r==(11)-9----------|
|----------9-------9h11---9h11---|----------------------------------------9h11-----|
|--------------------------------|-------------------------------------------------|
|--------------------------------|-------------------------------------------------|
|
|  E   E a E S S E E    S S  E      E       E   E S S   E        E      E    S S
|------0-2s4---------------------|----------0--------------------------------------|
|------0---x------------0-0------|----------0---------------------------0----------|
|--------2s4-4-0---4----4-4------|----------1--/4-4-4-------------------4----------|
|------------------x----x--------|----------2---x-x-x------------------------------|
|----------------5-5----5----4---|--2----------/5-5-5---5--------5-----------4s5---|
|--0-----------------------------|--0----------------------------------------------|


                                         Verse
  N.C.  (D)                               N.C(E6)
                                          Gtr III
  W                                        W
|--------------------------------------||-------------------------------|
|--------------------------------------||-------------------------------|
|--------------------------------------||-------------------------------|
|--------------------------------------||-------------------------------|
|--------------------------------------||-------------------------------|
|--------------------------------------||-------------------------------|
|
| Gtr IV                                  Gtr II
|        ~~~~~~~
|            |---3---|
| E     +E  +E  E    E    Q   a  Q         H        S  S  E  S  S  S  S
|--------------------------------------||----------16-16----16-16-16-16S|
|--------------------------------------||-----------x--x-----x--x--x--x-|
|--------------------------------------||----------16-16-16-16-16-16-16S|
|-9b11==(9)-(9)-9---------9---9h11\----||-------------------------------|
|-------------------11-----------------||-------------------------------|
|--------------------------------------||-------------------------------|
|
| Gtr I
| E      E   E    S    S  E E a  S  E.     E E E E  E     E  E     S  S
|-----------------0----0---------------||----9---9--------9--------9--9-|
|-----------------0----0--0-0----------||-------------------------------|
|------------4----4----4-/4-4----------||-/9---9----9--------9----------|
|------------x------------x-x-0h=2-----||-------------------------------|
|-4s=====5---5-----------/5-5-------4\-||-------------------------------|
|--------------------------------------||-------------------------------|


  (D6)
     W
|--------------------------------------------------|
|--------------------------------------------------|
|--------------------------------------------------|
|--------------------------------------------------|
|--------------------------------------------------|
|--------------------------------------------------|
|
|    S  S  S  S  S  S  S  S  E    S  S  S   S  e
|---14-14-14-14----14-14-14-14---------------------|
|----x--x--x--x-----x--x--x--x---14-14-14--14-14---|
|---14-14-14-14-14-14-14-14-14---14-14-14--14-14---|
|--------------------------------------------------|
|--------------------------------------------------|
|--------------------------------------------------|
|
| a  E     S  S  E     S  S  S S  S  S  E      S S
|----------7--7--------7--7-------9--9-------------|
|----------------------0--0----------------------0-|
|-9s=7-----------7-----------7h9--------9\-----2-0-|
|--------------------------------------------------|
|--------------------------------------------------|
|--------------------------------------------------|


  E                           E7/A
                               ~~
  Q        E.      a      +S   Q    E.    S
|-------------------------------------------|
|---------15b17-----------------------------|
|-----------------15pb16r(15)-12---14----13-|
|-------------------------------------------|
|-------------------------------------------|
|-------------------------------------------|
|
| E  E     Q                   H
|-------------------------------------------|
|-------------------------------------------|
|---13\-------------------------------------|
|----x\-------------------------------------|
|-------------------------------------------|
|-------------------------------------------|
|
| E  E  a  E    S          S   E E  e  E
|----0--2s=4--------------------------------|
|----0-----x----x---------------------------|
|-------2s=4---------------0-----4--4-------|
|--------------------------------x----------|
|-2----------------------------5-5----------|
|-0------------------------------------0----|


  E                             E7/A               N.C.(E6)
                                 ~~
   S  S E    E.      a      +S   Q    S  S  E        W
|------------------------------------------------|-----------------------------------------|
|-----------15b17--------------------------------|-----------------------------------------|
|-------------------15pb16r(15)-12---14-13-------|-----------------------------------------|
|-14p12------------------------------------14\---|-----------------------------------------|
|------------------------------------------------|-----------------------------------------|
|------------------------------------------------|-----------------------------------------|
|
|  W                                                 E  S  S  E    S  S  E  S  S  E  S  S
|------------------------------------------------|-----16-16------16-16-16-16-16----16-16--|
|------------------------------------------------|------x--x-------x--x--x--x--x-----x--x--|
|------------------------------------------------|-/16-16-16-16---16-16-16-16-16-16-16-16--|
|------------------------------------------------|-----------------------------------------|
|------------------------------------------------|-----------------------------------------|
|------------------------------------------------|-----------------------------------------|
|
|  E    E a  E    S          S   E E  S  S  S  S     E  E     S S  E     E  S  S  E  S  S
|-------0-2s=4-----------------------------------|--/9--9-------9-----------9--9-----9--9--|
|-------0----x----3p=========0-------------------|---x-------------------------------x--x--|
|--1----1-2s=4---------------0p----4--4--4--4--x-|--/9--------9----9-----9--------9--9--9--|
|--2-------------------------------x--x--x--x--x-|-----------------------------------------|
|--2-----------------------------5-5--5--5--5--x-|-----------------------------------------|
|--0---------------------------------------------|-----------------------------------------|


  (D6)                                       E                         E7/A
                                                                                       ~~~
   W                                          E   E       E     E       E     E     E  E
|------------------------------------------|-----17b19---17b19-17b19---17b19-17b19-15----|
|------------------------------------------|------------------------------------------17-|
|------------------------------------------|---------------------------------------------|
|------------------------------------------|---------------------------------------------|
|------------------------------------------|---------------------------------------------|
|------------------------------------------|---------------------------------------------|
|
|  E  S  S  S  S  S  S  S  S  S  S  a  Q      Q           Q             H
|-14-14-14-14-14-14-14-14-14-14-14-14s16---|---------------------------------------------|
|--x--x--x--x--x--x--x--x--x--x--x--x--x---|---------------------------------------------|
|-14-14-14-14-14-14-14-14-14-14-14-14s16---|-16\-----------------------------------------|
|------------------------------------------|---------------------------------------------|
|------------------------------------------|---------------------------------------------|
|------------------------------------------|---------------------------------------------|
|
|  E  S  S  S  S  S  S  S  S  S  S  a  Q      e   E    a  E     S    S  E     E     E  E
|--7--7--7--------7--7-----7-----7--7s=9\--|------0----2s=4------------------------------|
|--x--------------------------------x--x---|------0-------x-----3----0--------------0----|
|--7--------7--7--------7-----7-----7s=9\--|-----------2s=4-----4----0--------4--------x-|
|------------------------------------------|----------------------------------x--------x-|
|------------------------------------------|----------------------------5-----5--------x-|
|------------------------------------------|--0------------------------------------------|


  E                          E7/A
 ~~~~~~                                      ~~~
   +E   E       E     E       S  S  S  S  e  E
|------17b19---17b19-17b19---17-15--------------|
|-(17)-----------------------------17-15--------|
|----------------------------------------16-16--|
|-----------------------------------------------|
|-----------------------------------------------|
|-----------------------------------------------|
|
|   W
|-----------------------------------------------|
|-----------------------------------------------|
|-----------------------------------------------|
|-----------------------------------------------|
|-----------------------------------------------|
|-----------------------------------------------|
|
|   E   E    a  E     S    S  E     E     E  E
|-------0----2s=4-------------------0-----------|
|-------0-------x-----0----0--------0-----------|
|------------2s=4-----0----0--------4-----4-----|
|-----------------------------------------------|
|-----------------------------5--------------5\-|
|---0-------------------------------------------|


  E                         E7/A
  E  S  S    e    S  S  e    S  S  E    S  S
|--------------------------------------------|
|-----------15---------15---------15---------|
|---14s16--------14s16------14s16------16s14-|
|--------------------------------------------|
|--------------------------------------------|
|--------------------------------------------|
|
| Q          S S  S  S  E a  E     E a  E
|--------------------------------------------|
|--------------------------------------------|
|----------------------------------4-4s=6----|
|-----------------------2-4s=6---------------|
|-----------------2h=4-----------------------|
|------------2h4-----------------------------|
|
| E  E    a  E    S  S  E    E     E    E
|----0----2s=4----3--3-----------------------|
|----0-------x----0--0--x--------------------|
|----1----2s=4----3--3--x---/4-----4----4----|
|-----------------------x----x-----x----x----|
|-2-------------------------/5-----5----5----|
|-0------------------------------------------|


  E7/D                               E             A            E
                                                                PM|
   E    S     +S   E    E    S     a  E.    E  E   Q     S  S e E E a  E   E
|----------------------12---------14s16----14-12-|-----------------------------|
|-12---14b16-(14)-12--------12----14s16----14-13-|-----------------------------|
|------------------------------------------------|------------9----------------|
|------------------------------------------------|-------9s11--------------9---|
|------------------------------------------------|--------------7-7-9s11-------|
|------------------------------------------------|-----------------------------|
|
|  E    E          E    E    Q              Q      W
|------------------------------------------------|-----------------------------|
|--7b9--7b9--------7b9--7b9--7b9\----------------|-----------------------------|
|------------------------------------------------|-----------------------------|
|------------------------------------------------|-----------------------------|
|------------------------------------------------|-----------------------------|
|------------------------------------------------|-----------------------------|
|
|  E    E          E    E    S     a  E  S  E  E   E S S S  S E E E    S S S S
|----------------------------------2s=4-----2----|-----------------------------|
|-------------------------------------x-----x----|----------------0------------|
|--4----4----------4----4----4-----2s=4-----2--2-|---2-2----------1------------|
|--x----x----------x----x----x-----------------2-|------------2---2------------|
|--5----5----------5----5----5-------------------|-0-----3h=4-----2------------|
|------------------------------------------------|--------------0------0-0-1-2-|


  G     D5      N.(Bsus4)
 2/4           4/4
                  ~~~~~~~~~~~~~~~~~~~~~~~~~~~~
  S S E +E  E   a W
|-------------|------------------------------|
|-------------|------------------------------|
|-----7-(7)---|------------------------------|
|---7-------7-|-7s9--------------------------|
|-------------|------------------------------|
|-------------|------------------------------|
|
| W               H.                 E   +E
|-------------|---0--------------------------|
|-------------|---0--------------------------|
|-------------|---2b4----------------2b4r(2)s|
|-------------|------------------------------|
|-------------|------------------------------|
|-------------|------------------------------|
|
| E   e  E  E     S    +S  E  +H.
|-------------|------------0--(0)------------|
|-------------|------------0--(0)------------|
|-----------2-|---2b4==(2)-2r-(2)------------|
|--------0----|------------------------------|
|-----2-------|------------------------------|
|-3-----------|------------------------------|


 ~~~~~~~~
  +W
|----------------------------------|
|----------------------------------|
|----------------------------------|
|-(9)------------------------------|
|----------------------------------|
|----------------------------------|
|
|  Q       +Q    +E.      S  Q
|----------------------------------|
|------------------------15--------|
|-14b16===(14)--(14)---------------|
|---------------------------14\----|
|----------------------------------|
|----------------------------------|
|
|  H              E  E       S S E
|--------------------0-------------|
|--------------------0-------------|
|--------------------2b4-----2p0---|
|--------------------------------2-|
|----------------------------------|
|----------------------------------|


  E                       A               E                        A
   Q     a  S    S  S   S H               E S  S  S     S S   S  a  E.   S a  E     E
|---------------------------------------|---------------------------------------------------|
|-------12h14p==12----------------------|---------------------------------------------------|
|------------------14p=12---------------|---------9h===11-9--11--9s=7----x-9h11-----9-------|
|---------------------------------------|---9h11--------------------------------------------|
|---------------------------------------|---------------------------------------------------|
|---------------------------------------|---------------------------------------------------|
|
|  W                                      Q       E.         +S     Q         E.        +S
|---------------------------------------|---------------------------------------------------|
|---------------------------------------|---------------------------------------------------|
|---------------------------------------|--------14b16------(14)p==12--------14b16-----(14)p|
|---------------------------------------|---------------------------------------------------|
|---------------------------------------|---------------------------------------------------|
|---------------------------------------|---------------------------------------------------|
|
|  E  E     E      +E     E S S E   E     E E     E.         +S     E  S S    E    +E
|-----0-----0------(0)------0-0---------|---0--------------------------0-0------------------|
|-----0-----0------(0)------0-0---------|---0--------------------------0-0----0----(0)------|
|-----------2b4----(2)----2-2-2-2b4-2b4-|-1-1-----2b4--------(2)----2--2-2----2b4--(2)------|
|-(2)-----------------------------------|---2-----------------------------------------------|
|---------------------------------------|---------------------------------------------------|
|--0------------------------------------|---------------------------------------------------|


  E                          A
        |----3----|
   Q    S      S  S  S    S   H
|-----------------------------------------------|
|------12h====14p12-----------------------------|
|-------------------14p==12---------------------|
|-----------------------------------------------|
|-11--------------------------------------------|
|-----------------------------------------------|
|
|  Q    E.               +S   Q      Q
|-----------------------------------------------|
|-----------------------------------------------|
|-13---14b16============(14)r14-----------------|
|-----------------------------------------------|
|-----------------------------------------------|
|-----------------------------------------------|
|
|  E E  E           +E       +E  S S S    +S  E
|----0---------------------------0-0------------|
|----0---------------------------0-0-0----------|
|--1----2b4=========(2)r=====(2)-2-2-2pb4r(2)p0-|
|-----------------------------------------------|
|-----------------------------------------------|
|-----------------------------------------------|


  N.(D)
     E.   S  S  S  S  S    S  S  S  S  S   S  E
|----------------------------------------------------|
|-----------15-------15---------15--------15---------|
|--------16----14h16------14h16----14h16-----14b16---|
|----------------------------------------------------|
|----------------------------------------------------|
|----------------------------------------------------|
|
|                          ~~~~~~~~~~~~~~~
| a  Q.            S  S    Q          +E      S    S
|----------------------------------------------------|
|--------------------------7----------(7)------------|
|-9s11s============9p=7-----------------------9----7-|
|----------------------------------------------------|
|----------------------------------------------------|
|----------------------------------------------------|
|
| a  E E     E     S  S a  S  S  S  S  E      S    S
|----------------------------------------------------|
|----------------------------------------------------|
|----------------------------------------------------|
|----------------------------------------------------|
|-4s=5-5-----5-----0--4-4s=5--5--5--5--5------0----3-|
|----------------------------------------------------|


                                                             Verse
                                                              N.C.(E6)
                                                               ~~~
     +E      E  S      E      S    E  S  S     +S  T  T  E     H.                   Q
|----------------------------------------------------------||-------------------------------|
|-----------15--------15----------15-----------------------||-------------------------------|
|---(14)-------14pb16--------14------14-14b16-(14)14p12----||-12----------------------------|
|-------------------------------------------------------14-||-------------------------------|
|----------------------------------------------------------||-------------------------------|
|----------------------------------------------------------||-------------------------------|
|
|     S  E.     E         E     a  e  E         S  S     E     Q    E.   S E    E   Q
|----------------------------------------------------------||-------------------------------|
|----------------------------------------------------------||------------x-x\---------------|
|-----9h11----------------------9h11---------------------9-||------------x-x\---------------|
|------------------------11\--------------------9h11-------||------------x-x\---------------|
|----------------------------------------------------------||-------------------------------|
|----------------------------------------------------------||-------------------------------|
|
| a   E      E  S      E      S    E  S  S      E        E     E  E E  S S S  S S S E E
|-------------------------------------0--0---------------0-||-----9----9-9-9--9-9-9-9-------|
|-------------------------------------0--0------0--------0-||----------x---x--x-x-x-x-------|
|---------------4------4------4-------4--4------4--------4-||-/9----9--9---9--9-9-9-9-9\----|
|---------------x------x------------------------x----------||-------------------------------|
|-4s==5------5--5------5-----------5------------5----------||-------------------------------|
|----------------------------------------------------------||-------------------------------|


  (D6)                                    E7                      E7/A
                                                                   ~~
  W                                       E  E      +S   E.        Q    E       +E
|---------------------------------------|---17b19r=(17)-15b15.5--------15b18---(15)--|
|---------------------------------------|-------------------------17-----------------|
|---------------------------------------|--------------------------------------------|
|---------------------------------------|--------------------------------------------|
|---------------------------------------|--------------------------------------------|
|---------------------------------------|--------------------------------------------|
|
| W                                       E  E      +S   E.        Q    E       +E
|---------------------------------------|--------------------------------------------|
|---------------------------------------|---10pb12r(10)--8b8.5----------8b11----(8)--|
|---------------------------------------|--------------------------9-----------------|
|---------------------------------------|--------------------------------------------|
|---------------------------------------|--------------------------------------------|
|---------------------------------------|--------------------------------------------|
|
| S S S S E S S   S  S  S  S  S  S  S S   E  E       E.         S  E E  S    S   S S
|---7-----7-7-7-/14-14-14-14-14-16-16-x-|----0------/3----------0--------------------|
|---------x-x-x---x--x--x--x--x--x--x-x-|----0------/3----------0--------------------|
|-7---7-7-7-7-7-/14-14-14-14-14-16-16-x-|----1------/4------------/4-4---------------|
|---------------------------------------|--------------------------x-x-----------2h4-|
|---------------------------------------|-------------------------/5-5--2h===4-------|
|---------------------------------------|-0------------------------------------------|


  E7                  E7/A
                                  ~~~
  E  E     +S   E   S  E.      S  E.     +S
|---17b19-(17)-15-----17b19---15--------------|
|--------------------------------17-----(17)\-|
|---------------------------------------------|
|---------------------------------------------|
|---------------------------------------------|
|---------------------------------------------|
|
|                                 ~~~~~~
| E  E     +S   E   S  E.      S  E  E
|---------------------------------------------|
|---10b12r(10)--8-----10b12----8--------------|
|---------------------------------9--9\-------|
|---------------------------------------------|
|---------------------------------------------|
|---------------------------------------------|
|
| E  E      S   S S S  E    S  S  E  S    S
|----0----------------------------0--0----0---|
|----0-----/3---3-3-3-------3-----0--0----0---|
|----4-----/4---4-4-4-------4-----4--4----4/--|
|----------------------0-------0--------------|
|---------------------------------------------|
|-0-------------------------------------------|


  N.C(E6)                                   (D6)
   W                                         W
|-----------------------------------------|-------------------------------------------|
|-----------------------------------------|-------------------------------------------|
|-----------------------------------------|-------------------------------------------|
|-----------------------------------------|-------------------------------------------|
|-----------------------------------------|-------------------------------------------|
|-----------------------------------------|-------------------------------------------|
|
|                                            ~~~~~~~
|  E  S  S  E  S  S  +S   S  E  E    S  S    E    E    E  E   E     S  S  E     E
|----16-16----16-16-(16)-16-16------16s14-|------14---14-14--------14-14-------16\----|
|-----x--x-----x--x-------x----------x----|------------x--x---------x--x--------x-----|
|----16-16-16-16-16-(16)-16----16---16s14-|-14--------14-14--14----14-14-14----16\----|
|-----------------------------------------|-------------------------------------------|
|-----------------------------------------|-------------------------------------------|
|-----------------------------------------|-------------------------------------------|
|
|  E  S  S  E  S  S  +S   S  E  S S  S  S    S S  S S  E  E   S  S  S  S  S  S  S  S
|-----9--9--9--9--9--(9)--9--9--9-9--9--9-|--7-7--7-7--7--7-----14----14-14-16-16-----|
|-----x--x--x--x--x-------x--x--x-x--x--x-|--x-x--x-x--x--x---------------x--x--x--x\-|
|-/9--9--9--9--9--9--(9)--9--9--9-9--9--9-|--7-7--7-7--7--7-/14----14----14-16-16--x\-|
|-----------------------------------------|-------------------------------------------|
|-----------------------------------------|-------------------------------------------|
|-----------------------------------------|-------------------------------------------|


  E7                   E7/A
     ~~~~~~~~~~~~
  E  E      +E.    +S   S  S  S  S  E    E
|----------------------------------17---16---|
|---17b19==(17)r==(17)-15----15-17-----------|
|-------------------------16-----------------|
|--------------------------------------------|
|--------------------------------------------|
|--------------------------------------------|
|
| H                     S  S  S  S  E a  E
|--------------------------------------------|
|--------------------------------------------|
|--------------------------------------------|
|-----------------------------------2-2s=4---|
|-----------------------------2--4-----------|
|-----------------------2h=4-----------------|
|
| E  E       E  S   S   E     S  S  E    E
|----0------/4----------------0--0-/7s===9\--|
|----0------/3----------------0--0-/5s===7\--|
|----1------/4--0---0---------4--4-----------|
|--------------------------------------------|
|-----------------------5--------------------|
|-0------------------------------------------|


  E7                E7/A                   E7                  E7/A
   ~~                                                 ~~~~~
   E  E  S  S  S  S  S  S  a  E    E  E     S  S   e  Q         S  S  S  S  S     S  S  S
|----------------------------------------|-------^12-----------12-------12----------------|
|-17-15-------15-------15----------------|-------^12-15b17--------12-15-12-12----12-15-12-|
|-------12s16----12s16----16s14---12-----|-12h13---------------------------14b16----------|
|------------------------------------14--|------------------------------------------------|
|----------------------------------------|------------------------------------------------|
|----------------------------------------|------------------------------------------------|
|
|  E  E  Q           S  S     S S  E  E     H                   S  S  S  S  S     S  S  S
|----------------------------------------|------------------------------------------------|
|----------------------------------------|------------------------------------------------|
|----------------------------------------|------------------------------------------------|
|----------------------------------2s=4\-|----------------------------------2-----4s=5s=6-|
|-----------------------------2h4--------|----------------------------2--4----------------|
|--0--0--------------2s=4----------------|----------------------2h=4----------------------|
|
|  E  E  E     S  S  E        E    E  E     E      e  E    S S  E     S  S  E        S  S
|-----0----------------------------7s=9--|---------0-/4---------------------0-------------|
|-----0-------------/3s=======5----x-----|---------0-/3----0-0--------------0-------------|
|-----1-/4-----4p=0-/4s=======6----7s=9--|---------1-/4----0-0--4-----4--4--4-------------|
|--------x-----x-------------------------|----------------------x-----x--x--x-------------|
|-------/5-----5-------------------------|----------------------5-----5--5--5--------4--2-|
|--0-------------------------------------|--0---------------------------------------------|


  N.C.  (D)                                           (E)
                                                       ~~~~~
   S     S  S    S     S    S  S  S     +S   T  T  E   E  E
|-------------------------------------------------------------|
|-12----12-15---------12---15p12-12----(12)-------------------|
|-14b16---------14b16------------14b16-(14)-14p12-----12------|
|-------------------------------------------------14-----14---|
|-------------------------------------------------------------|
|-------------------------------------------------------------|
|
|                              ~~~~~~~~~~~~~~
|  E        S   +S     E       E        +S   S     E   Q
|-------------------------------------------------------------|
|-------------------------------------------------------------|
|--4--------4b6-(4)----4b6-----4--------(4)p=0----------------|
|-------------------------------------------------------------|
|-------------------------------------------------------------|
|-------------------------------------------------15\---------|
|
|  S     S  S    S     E       S  S      S   E.        E  e
|-------------------------------------------------------------|
|-------------------------------------------------------------|
|--3s====4--4----3-----4-------4--3------4--------------------|
|--x--------x----x-----x-------x--x------x--------------------|
|--4s====5--5----4-----5-------5--4------5--------------------|
|--------------------------------------------0---------3--4---|


  A          E              G     D5
                           2/4
             PM|
  Q   E    e E E a  E E      E  S  S   E  E
|-------------------------|-----------------|
|-------------------------|-----------------|
|---------/9--------------|-----------------|
|---------------------9---|----------(12)---|
|------------7-7-9s11-----|-10-12s14--------|
|-------------------------|-----------------|
|
| W                          W
|-------------------------|-----------------|
|-------------------------|-----------------|
|-------------------------|-----------------|
|-------------------------|-----------------|
|-------------------------|-----------------|
|-------------------------|-----------------|
|
| E E S S  E E E a  E S S    E  e      Q
|--------------0-2s=4-----|-----------------|
|--------------0----x-x---|-----3------3----|
|---2------2---1-2s=4-x-0-|-----4------2----|
|-2-2------2--------------|-----5------0----|
|-0---3h4-----------------|-----------------|
|------------0------------|--3--------------|


  N.C. (Bsus4)
 4/4
  W                          E   S     +S   Q   E  E    +E      S  S
|-------------------------|----------------15-----14---(14)----------|
|-------------------------|------------------------------------------|
|-------------------------|-----14b16-(14)-----14--------------12h13-|
|-------------------------|------------------------------------------|
|-------------------------|------------------------------------------|
|-------------------------|------------------------------------------|
|
| H              H           H.                          Q
|-------------------------|-15---------------------------------------|
|---------------15--------|-15---------------------------------------|
|---------------14b16=====|=14r--------------------------------------|
|-------------------------|------------------------------------------|
|-------------------------|------------------------------------------|
|-------------------------|------------------------------------------|
|
| E    +E  +H.              +H                  E  S S   S S a  E
|-0----(0)-(0)------------|-(0)--------------------------------------|
|-0----(0)-(0)------------|-(0)--------------------3p0---2-----------|
|-2b4==(2)-(2)------------|-(2)-----------------2--------2p0-0h=1----|
|-------------------------|-------------------------------------2----|
|-------------------------|------------------------------------------|
|-------------------------|------------------------------------------|


  E                  A
   +E  E   Q         H
|------------------------------------|
|------------------------------------|
|-(13)-------------------------------|
|------------------------------------|
|------------------------------------|
|------------------------------------|
|
|   e  E   S  S S  S Q     S  S S  S
|------------------------------------|
|------------------------------------|
|---------------9h11------------9h11-|
|----------9-11------------9h11------|
|--11--------------------------------|
|------------------------------------|
|
|   E  E a E    S  S E S S S  S S  S
|------0-2s4----x--x-----------------|
|------0---x----x--x-----------------|
|------1-2s4----x--x---2p0-----------|
|----------------------2p0------2h=4-|
|--------------------0-----2h=4------|
|---0--------------------------------|


  E                  A                    E                   A
  Q    S    S  S   S  e E   Q             W
|---------------------------------------|---------------------------------|
|-----12h==14p12------------------------|---------------------------------|
|-----------------14p12-----------------|---------------------------------|
|---------------------------------------|---------------------------------|
|---------------------------------------|---------------------------------|
|---------------------------------------|---------------------------------|
|
| Q    S    S  S   S  Q     S    S S  S   Q   S    S  S   S   Q  E   S S
|---------------------------------------|---------------------------------|
|---------------------------------------|----------------------------x-x--|
|--------------9h=11---------------9h11-|-------------9h=11----------x-x--|
|------9h==11---------------9h==11------|-----9h==11----------------------|
|---------------------------------------|---------------------------------|
|---------------------------------------|---------------------------------|
|
| E E  E      +S   S  E S S E      S  S   E E E      +S   S a Q  E   S S
|---0-------------------0-0-------------|---0-----------------0-----------|
|---0--0--------------------------------|---0-----------------0-----------|
|---1--2b4r===(2)p=0--2-----2b4----2p=0-|---1-2b4r===(2)p=0-0h2--2b4-2p0--|
|---------------------------------------|---------------------------------|
|---------------------------------------|---------------------------------|
|-0-------------------------------------|-0-------------------------------|


  N.C.  (D)
   Q         E   E      E     E  E  E      E     E  E     E    E     E  S      +S   e
|---------------------------------------|---------------------------------------------|
|-----------15--15-----------15-15-15---|-------15-------15---------15----------------|
|-14b16----------------14b16------------|-14b16----14b16------14b16----14pb16r(14)-12-|
|---------------------------------------|---------------------------------------------|
|---------------------------------------|---------------------------------------------|
|---------------------------------------|---------------------------------------------|
|
|                             ~~~~~~~~~~~~~~~~~~~~~~~~~~~~~~~~~~~~~~~~~~~~~~~~~
|  E    a E  Q         +E     E  E  E      Q        E     E    E     E  E           e
|---------------------------------------|---------------------------------------------|
|-----------(8)--------(8)----8--8--8---|-/8--------8-----8----8-----8--8-----------8-|
|-----------------------------x--x--x---|--x--------x-----x----x-----x--x-------------|
|-------7s9-(9)--------(9)----9--9--9---|-/9--------9-----9----9-----9--9-------------|
|---------------------------------------|---------------------------------------------|
|---------------------------------------|---------------------------------------------|
|
|  E      E  E   S S a  E     E  E  S S    E     E  E     S S  E     E  E           E
|---------------------------------------|------------------------------------------^0-|
|---------------------------------------|------------------------------------------^0-|
|---------4--4---4-4----------4--4------|-/4-----4-/4-----2-0-/4-----4-/4----------^4-|
|---------x--x---x-x----------x--x------|--x-----x--x----------x-----x--x-------------|
|--5------5--5---5-5-4s=5-----5--5--x-4-|-/5-----5-/5---------/5-----5-/5-------------|
|---------------------------------------|---------------------------------------------|


  (E6)
   S  S  S  S  S  S  S  S  S  S  S  S  S  S  a  E
|-16p12----16p12----16p12----16p12----16p12-----------|
|-------12-------12-------12-------12-------12s10-----|
|-----------------------------------------------------|
|-----------------------------------------------------|
|-----------------------------------------------------|
|-----------------------------------------------------|
|
|  E     S  S  S  S  E     S  S  S  S  E        S  S
|----------16----16----------16-16----16-------16s14--|
|-----------------------------x--x-----x--------x-----|
|-------16----16----16----16-16-16-16-16-------16s14--|
|-----------------------------------------------------|
|-----------------------------------------------------|
|-----------------------------------------------------|
|
|  E     S  S  S  E     S  S  S  S  S  E        S  S
|--------9--9--9--9--------9--9-----9-----------9s=7--|
|--------x--x--x--------------------------------x-----|
|-/9-----9--9--9--------9--------9-----9--------9s=7--|
|-----------------------------------------------------|
|-----------------------------------------------------|
|-----------------------------------------------------|


  (D6)
   S  S  S  S  S  S  S  S  S  S  S  S  S  S  S   S
|-14p10----14p10----14p10----14p10----14p10--------|
|-------10-------10-------10-------10-------10s=14-|
|--------------------------------------------------|
|--------------------------------------------------|
|--------------------------------------------------|
|--------------------------------------------------|
|
|  E     S  S  E     S  S  E     S  S  S  S  S   S
|-14-------14-14----14-14-14----14-14-14-14-14s=18-|
|--x-----------x-----x--x--x-----x--x--x--x--x-----|
|-14----14----14----14-14-14----14-14-14-14-14s=18-|
|--------------------------------------------------|
|--------------------------------------------------|
|--------------------------------------------------|
|
|  E     S  S  S  S  S  S  E     S  S  E     E
|--7--------7--------7--------------7--------7/----|
|--x-----------------------------------------x-----|
|--7-----7-----7--7-----7--7-----7-----7-----7/----|
|--------------------------------------------------|
|--------------------------------------------------|
|--------------------------------------------------|


  (F#6)
   S  S  S  S  S  S  S  S  S  S  S  S  S  S  S   S
|-18p14----18p14----18p14----18p14----18p14---------|
|-------14-------14-------14-------14-------14h=15--|
|---------------------------------------------------|
|---------------------------------------------------|
|---------------------------------------------------|
|---------------------------------------------------|
|
|  E     S  S  E     S  S  E     S  S  E     S   S
|-18-------18-------18-18-18----18-18-18------------|
|--x-----------------x--x--x-----x--x--x------------|
|-18----18----18----18-18-18----18-18-18----18s=19--|
|---------------------------------------------------|
|---------------------------------------------------|
|---------------------------------------------------|
|
|  E     S  S  S  S  S  S  S  E     S  S  S  E
|-11-------11-------11-------11-------11-11-11/-----|
|--x-----------------------------------x--x--x------|
|-11----11----11-11----11-11-------11-11-11-11/-----|
|---------------------------------------------------|
|---------------------------------------------------|
|---------------------------------------------------|


  (G6)                       (A6)
   S  S  S  S  S  S  S  S     S  S  S  S  E   E
|-19p15----19p15----19p15-------19p15----19\----||
|-------15-------15----------15-------15-----10-||
|-----------------------------------------------||
|-----------------------------------------------||
|-----------------------------------------------||
|-----------------------------------------------||
|
|  E     S  S  E     S  S     E     E     E   E
|-19-------19-19----19-19----19----19----19\----||
|--x-----------x-----x--x-----x-----x-----x-----||
|-19----19----19----19-19----19----19-----------||
|-----------------------------------------------||
|-----------------------------------------------||
|-----------------------------------------------||
|
|  E     S  S  S  S  E     a  E     S  S  Q
|-12-------12-------12----12s14----14-14-14\----||
|--x-----------------x--------x-----x--x--x-----||
|-12----12----12-12-12----12s14----14-14-14\----||
|-----------------------------------------------||
|-----------------------------------------------||
|-----------------------------------------------||


 Guitar Solo
  N.C(E7)
            ~~~~~~~
   E  S  S  E    E  E  e  S     +T   T  E
|-12--------------------------------------|
|----14p12--------------------------------|
|------------------12-12-14b16r(14)p12----|
|----------14---14---------------------14-|
|-----------------------------------------|
|-----------------------------------------|
|
|  E  S  S  S S  e  E  E  S      S      E
|-----------------------------------------|
|-----------------------------------------|
|-----------7-7-----7--7--9------7--------|
|-----7s=9-------9----------------------9-|
|--7--------------------------------------|
|-----------------------------------------|
|
|  E  S  S  S S  e  e  e  S      S      E
|-----------------------------------------|
|-----------------------------------------|
|-----------------------------------------|
|-----------------------------------------|
|-----------5-5-----5--7--7------5--------|
|--0--5s=7-------7----------------------7-|


   ~~
   Q      E    +E   E  S  S  e    E
|-----------------------------------|
|-----------------------------------|
|-12------------------------12---14-|
|--------14---(14)\---14-14---------|
|-----------------------------------|
|-----------------------------------|
|
|  E S S  S S   e   E  E     S S  E
|-----------------------------------|
|-----------------------------------|
|---------7-7-------7--7-----9-7----|
|----7s9--------9-----------------9-|
|--7--------------------------------|
|-----------------------------------|
|
|  E S S  S S   e   e  e     S S  E
|-----------------------------------|
|-----------------------------------|
|-----------------------------------|
|-----------------------------------|
|---------5-5-------5--5-----7-5----|
|--0-5s7--------7-----------------7-|


                                                   |----3----|
   S     S  S     S  S  S  e  S      +E     S      S  +S     S  E
|-----------------------------------------------------------------|
|-------12-------12-----------------------------------------------|
|-14b16----14b16----14-12----14b16==(14)---14pb16-14r(14)p==12----|
|-------------------------14-----------------------------------14-|
|-----------------------------------------------------------------|
|-----------------------------------------------------------------|
|
|  E        S     S  S  S  e  E          E         S      S     E
|-----------------------------------------------------------------|
|-----------------------------------------------------------------|
|--------------------7--7-----7----------7---------9------7-------|
|-----------7s====9--------9------------------------------------9-|
|--7--------------------------------------------------------------|
|-----------------------------------------------------------------|
|
|  E        S     S  S  S  e  e          e         S      S     E
|-----------------------------------------------------------------|
|-----------------------------------------------------------------|
|-----------------------------------------------------------------|
|-----------------------------------------------------------------|
|--------------------5--5-----5----------5---------7------5-------|
|--0--------5s====7--------7------------------------------------7-|


   ~~                                               ~~~~
   Q     E   E   e  s  S  E    E    Q              +Q      E  Q         +E
|--------------^12---------------|-14b16==========(14)-------14b16r====(14)---|
|--------------^12-15-12-14---12-|--------------------------------------------|
|-12-----x-----^13---------------|--------------------------------------------|
|--------x-----------------------|--------------------------------------------|
|--------------------------------|--------------------------------------------|
|--------------------------------|--------------------------------------------|
|
|  E S S S S e   E  E     S S  E    S     S a E     S  S E E  E    S S   S  S
|--------------------------------|--------------------------------------------|
|--------------------------------|--------------------------------------------|
|--------7-7-----7--7-----9-7----|------------------7--7---7--7----9-7--------|
|----7s9-----9-----------------9-|--------x-7h9----------9---------------9--x-|
|--7-----------------------------|--7-----------------------------------------|
|--------------------------------|--------------------------------------------|
|
|  E S S S S e   e  e     S S  E    E         S S   S  S E E  E    S S   S  S
|--------------------------------|--------------------------------------------|
|--------------------------------|--------------------------------------------|
|--------------------------------|--------------------------------------------|
|--------------------------------|--------------------------------------------|
|--------5-5-----5--5-----7-5----|------------------5--5---5--5----7-5--------|
|--0-5s7-----7-----------------7-|--0---------5s7--------7---------------7--x-|


  (A/E)
   ~~
   Q      E    E  E     S  S  E     e
|-14-----12---------------12------^12-|
|-------------15-------12----12---^12-|
|----------------14b16----------------|
|-------------------------------------|
|-------------------------------------|
|-------------------------------------|
|
|  S S E  S S  E  E     E     S S   E
|-------------------------------------|
|-------------------------------------|
|---------6-6-----6-----6-----7-6-----|
|----7-7-------7--------------------7-|
|--7----------------------------------|
|-------------------------------------|
|
|  S S E  S S  E  E     E     S S   E
|-------------------------------------|
|-------------------------------------|
|-------------------------------------|
|-------------------------------------|
|---------4-4-----4-----4-----5-4-----|
|--0-x-5-------5--------------------5-|


  (E7)
   ~~~~~
   H                 E     +E      E       +E
|-14b16-------------15b16-(15)b17-15b16---(15)---|
|------------------------------------------------|
|------------------------------------------------|
|------------------------------------------------|
|------------------------------------------------|
|------------------------------------------------|
|
|  S    S S S S S E  E      E      S    S   S  S
|------------------------------------------------|
|------------------------------------------------|
|-------------7-7----7------7------9----7--------|
|-------x-7h9-----9-------------------------9--7-|
|--7---------------------------------------------|
|------------------------------------------------|
|
|  E      S S S S E  E      E      S    S   S  S
|------------------------------------------------|
|------------------------------------------------|
|------------------------------------------------|
|------------------------------------------------|
|-------------5-5----5------5------7----5--------|
|--0------5h7-----7-------------------------7--5-|


  (A/E)
           ~~~~
   E      +E   E    S  S  S  S  S  S  E       S  S
|-12-----(12)-12---12-12---------------------------|
|------------------------12-15-12------------------|
|---------------------------------14-14b16---14p12-|
|--------------------------------------------------|
|--------------------------------------------------|
|--------------------------------------------------|
|
|  S S a   E   S S  E     E     E     S    S  S  S
|--------------------------------------------------|
|--------------7-7--------7-----7-----8----7-------|
|------7h==9--------9-------------------------9--9-|
|--7-x---------------------------------------------|
|--------------------------------------------------|
|--------------------------------------------------|
|
|  S S     E   S S  E     E     E     S    S  E
|--------------------------------------------------|
|--------------------------------------------------|
|--------------------------------------------------|
|--------------------------------------------------|
|--------------4-4--------4-----4-----5----4-------|
|--5p0S====5--------5-------------------------5----|


  (E7)
  S  S        S  S  S  +S   E S  S      +E   S  +S   e
|--------------------------------------------------------|
|---12-------12-12-12-(12)----x-12-----(12)-12-(12)------|
|---14b16====14-14-14r(14)-12-x-14b16==(14)-14r(14)-12---|
|--------------------------------------------------------|
|--------------------------------------------------------|
|--------------------------------------------------------|
|
| PM
| E        a  E     S   S   E E          E   S   S   S S
|--------------------------------------------------------|
|--------------------------------------------------------|
|-------------------7---7-----7----------7---9---7-------|
|----------7s=9-------------9------------------------9-7-|
|-7------------------------------------------------------|
|--------------------------------------------------------|
|
| E           S  S  S   S   E E          E   S   S   S S
|--------------------------------------------------------|
|--------------------------------------------------------|
|--------------------------------------------------------|
|--------------------------------------------------------|
|-------------------5---5-----5----------5---7---5-------|
|-0-----------5s=7----------7------------------------7-5-|


  (A/E)
  S  S        S  S  S  +S   S   S   S     S  S  S      S  S  S S
|-----------------------------------------------------------------|
|-x-12-------12-12-12-(12)-----12--12----12----12--------12-------|
|-x-14b16====14-14-14r(14)-14-(12)-14b16----14-14pb16-14-13----x--|
|-----------------------------------------------------------14----|
|-----------------------------------------------------------------|
|-----------------------------------------------------------------|
|
| PM
| S  S     a  E     S   S   E       E        E         S  S  S S
|-----------------------------------------------------------------|
|-----------------------------------------------------------------|
|-------------------6---6-----------6--------6---------7--6-------|
|----x-----6s=7-------------7--------------------------------7-x--|
|-7---------------------------------------------------------------|
|-----------------------------------------------------------------|
|
| e           E     S   S   S   S   E        E         S  S  S S
|-----------------------------------------------------------------|
|-----------------------------------------------------------------|
|-----------------------------------------------------------------|
|-----------------------------------------------------------------|
|-------------------4---4-----------4--------4---------5--4-------|
|-0----------/5-------------5---x----------------------------5-x--|


  (E7)
  S  S        +S   S  S  S   S  S S  S      +S   S  E      S  +S
|-----------------------------------------------------------------|
|---12-------(12)-12-12-12--------x-12-----(12)-12-12-------------|
|---14b16====(14)----14-14r-14p12-x-14b16==(14)-14-14-----14r(14)-|
|-----------------------------------------------------------------|
|-----------------------------------------------------------------|
|-----------------------------------------------------------------|
|
| PM|
| S  S     a   E      S  S   E    E          E      S S    S   S
|-----------------------------------------------------------------|
|-----------------------------------------------------------------|
|---------------------7--7--------7----------7------9-7-----------|
|----------7s==9-------------9-----------------------------9---8--|
|-7--7------------------------------------------------------------|
|-----------------------------------------------------------------|
|
| E        a   E      S  S   E    E          E      S S a  S   S
|-----------------------------------------------------------------|
|-----------------------------------------------------------------|
|-----------------------------------------------------------------|
|-----------------------------------------------------------------|
|---------------------5--5--------5----------5------7-5-7s=9s==5--|
|-0--------5s==7-------------7------------------------------------|


  (A/E)
   S  S         +S   S  E         S  S  S       S  S       S  E    a  S  S
|---------------------------------------------------------------------------|
|-------------------12-12-----------12---------12------------------------x--|
|-12-14b16=====(14)----14r-------14----14--------------------12------12--x--|
|-------------------------------------------------14------14-------x--------|
|---------------------------------------------------------------------------|
|---------------------------------------------------------------------------|
|
|  ~~
|  E         a   E      E         E     E          E          S  S    S  S
|---------------------------------------------------------------------------|
|---------------------------------------------------------------------------|
|----------------------12b12.5---------12b12.5----12b12.5----14-12----------|
|--7--------12s=14---------------14----------------------------------14-12--|
|---------------------------------------------------------------------------|
|---------------------------------------------------------------------------|
|
|  E             E      S      S  E     E          E          S  S    S  S
|---------------------------------------------------------------------------|
|---------------------------------------------------------------------------|
|---------------------------------------------------------------------------|
|---------------------------------------------------------------------------|
|-----------------------4------4--------4----------4----------5--4-------5--|
|--0-------------5----------------5-----------------------------------5-----|


  (E)
   S     S     S  S  S     S  S  S     S  S  a      +S   S  S     S  S  S
|-------------------------------------------------------------------------|
|--x----------12-12-------12-12-12----12-12----------------------12-12-12-|
|--x----14b16-------14b15-------14b16-------14pb16r(14)p12-14b16----------|
|-------------------------------------------------------------------------|
|-------------------------------------------------------------------------|
|-------------------------------------------------------------------------|
|
|  S  a  S     S  S  E        S  S     S  S          S   S  E        S  S
|-------------------------------------------------------------------------|
|-------------------------------------------------------------------------|
|-------------------------------------------------------------------------|
|----12h14----12----12-------14-12-------14---------12-----12-------14-12-|
|----------------14-------------------14----------------14----------------|
|-12----------------------------------------------------------------------|
|
|  PM                                  PM
|  s  a  S     S  S  E        S  S     S  S          S   S  E        S  S
|-------------------------------------------------------------------------|
|-------------------------------------------------------------------------|
|-------------------------------------------------------------------------|
|-------------------------------------------------------------------------|
|-----5h=7-----5-----5--------7--5--------7----------5------5--------7--5-|
|--0--------------7--------------------0-----------------7----------------|


  (A)
   +S      S  S     S  S     S  S  S     S  S  S   S   S   S   S   s
|------------------12-------12-12-------12-12----(12)----------------|
|-(12)----15-15b17----15b17----12-15b17----15-12---------(12)-----12-|
|-------------------------------------------------15--14p=12------12-|
|-------------------------------------------------------------14-----|
|--------------------------------------------------------------------|
|--------------------------------------------------------------------|
|
|   S   a  S  S     S  E        S  S     s  E      S   E       S   S
|--------------------------------------------------------------------|
|--------------------------------------------------------------------|
|------12h14-12-------12-------14-12----14-14-----14--12-------------|
|------------------14-----------------------------------------14p=12-|
|--12----------------------------------------------------------------|
|--------------------------------------------------------------------|
|
|   PM                                   PM
|   S   a  S  S     S  E        S  S     S  E      S   E       E
|--------------------------------------------------------------------|
|--------------------------------------------------------------------|
|--------------------------------------------------------------------|
|-------5h=7--5--------5--------7--5--------7------7---5-------------|
|-------------------7------------------------------------------7\----|
|---5------------------------------------5---------------------------|


  (E)
   S     S     S  S  S     S  S  S     S  S  S  S     S  S  S  S
|----------------------------------------15-12-------------12-12-|
|-------12----12-12-------12-12-12----12-15-12-12----12-12-12-12-|
|-------14b16-------14b16-------14b16----------14b16-------------|
|----------------------------------------------------------------|
|----------------------------------------------------------------|
|----------------------------------------------------------------|
|
|  S  a  S     S  S  E        S  S     S  S  S  S     E     S  S
|----------------------------------------------------------------|
|----------------------------------------------------------------|
|----------------------------------------------------------------|
|----12h14----12----12-------14-12-------14-12-------12----14-12-|
|----------------14----------------------------14----------------|
|-12----------------------------------12-------------------------|
|
|  PM
|  S     S     S  S  E        S  S     S  S  S  S     E     S  S
|----------------------------------------------------------------|
|----------------------------------------------------------------|
|----------------------------------------------------------------|
|----------------------------------------------------------------|
|--------7-----5-----5--------7--5--------7--5--------5-----7--5-|
|--0--------------0--------------------0--------7----------------|


  (A)
   S     S     S  S  S     S  S  S     S  S  S      S  S   T     +T   S  S
|-------------12-12-------12-12-12----12-----------12-12--12----(12)-12-12-|
|-12----15b17-------15b17-------15b17----12-15b17=====15r-15b16-(15)-------|
|--------------------------------------------------------------------------|
|--------------------------------------------------------------------------|
|--------------------------------------------------------------------------|
|--------------------------------------------------------------------------|
|
|  S  a  S     S  S  E        S  S     S  E         S  E              S  S
|-----------------------------------------0---------0----------------------|
|-----------------------------------------x---------x----------------------|
|----12h14----12----12-------14-12-------14--------14-12-------------------|
|----------------14--------------------------------------------------14p12-|
|-12-----------------------------------------------------------------------|
|--------------------------------------------------------------------------|
|
|  PM                                  PM
|  S  a  S     S  S  E        S  S     S  E         S  E              S  S
|--------------------------------------------------------------------------|
|--------------------------------------------------------------------------|
|--------------------------------------------------------------------------|
|-----5h=7-----5-----5--------7--5--------7---------7--5-------------------|
|-----------------7---------------------------------------------------7p=5-|
|--0-----------------------------------5-----------------------------------|


  (E)
   S     S  S     S  S     S  S     S  T  T  S  E     S      S  S   S
|-15b16-12-12----12-------12-------12------------------------------------|
|----------15b17----15b17----12----12-----------------------12-12--12----|
|----------------------------14b16----14p12----12----14b16=====14r-14b16-|
|-------------------------------------------14---------------------------|
|------------------------------------------------------------------------|
|------------------------------------------------------------------------|
|
|  S     S  S     S  E        S     S  S     S  S  S  E         S   S
|------------------------------------------------------------------------|
|------------------------------------------------------------------------|
|------------------------------------------------------------------------|
|-------14-12-------12-------14----12-------14-12----12--------14--12----|
|----------------14-------------------------------14---------------------|
|-12----------------------------------12---------------------------------|
|
|  PM
|  S     S  S     S  E        S     S  S     S  S  S  E         S   S
|------------------------------------------------------------------------|
|------------------------------------------------------------------------|
|------------------------------------------------------------------------|
|------------------------------------------------------------------------|
|--------7--5--------5--------7-----5--------7--5-----5---------7---5----|
|--0--------------7--------------------0-----------7---------------------|


  (A)
   S     S  S     S  S  S     S  S  S     S  S  S      S  S   S   S
|-12----12-------12-12----------12-------12-----------12-12------12------|
|-12-------15b17----12-12----12----15b17----12-15b17=====15r-12--15b17r==|
|----------------------14b16---------------------------------------------|
|------------------------------------------------------------------------|
|------------------------------------------------------------------------|
|------------------------------------------------------------------------|
|
|  S  a  S  S     S  E        S  S  S     E     S      E      S   S
|------------------------------------------------------------------------|
|------------------------------------------------------------------------|
|----12h14-12-------12-------14-12-------14----12-----12-----------------|
|----------------14------------------------------------------14p=12------|
|-12---------------------------------------------------------------------|
|------------------------------------------------------------------------|
|
|  S     S  S     S  E        S  S  S     E     S      E      E
|------------------------------------------------------------------------|
|------------------------------------------------------------------------|
|------------------------------------------------------------------------|
|--------7--5--------5--------7--5--------7-----7------5-----------------|
|-----------------7-------------------------------------------7\---------|
|--5--------------------------------5------------------------------------|


  (E)
   +S   S      S  S      S  S      S     S  a      +S   S  a      +S   S  S      S  T  T  S
|-(12)-12--------12-----12-12-----------12-------------12-------------12--------12-12-12-------|
|-(15)-15pb17-15-15pb17-15-15pb17-15b17----15pb17r(15)----15pb17r(15)----15b17==15-15r15-15b17-|
|----------------------------------------------------------------------------------------------|
|----------------------------------------------------------------------------------------------|
|----------------------------------------------------------------------------------------------|
|----------------------------------------------------------------------------------------------|
|
|   S   S      S  S      E         S     S          S   S          S   S  E         S     S
|----------------------------------------------------------------------------------------------|
|----------------------------------------------------------------------------------------------|
|----------------------------------------------------------------------------------------------|
|------14-----12--------12--------14----12-------------14---------12-----12--------14----12----|
|----------------14---------------------------------------------------14-----------------------|
|--12----------------------------------------------12------------------------------------------|
|
|   S   S      S  S      E         S     S          S   S          S   S  E         S     S
|----------------------------------------------------------------------------------------------|
|----------------------------------------------------------------------------------------------|
|----------------------------------------------------------------------------------------------|
|----------------------------------------------------------------------------------------------|
|-------7------5---------5---------7-----5--------------7----------5------5---------7-----5----|
|---0-------------7---------------------------------0------------------7-----------------------|


  (A)
   S     S     S  S  S     S  S     S  S      S  S   S  E   E
|-12----------12-12-12----12-12----12-12-------------------(0)----||
|-------15b17-------15b17----15b17----15b17==15-15r--x--x\-(0)----||
|-------------------------------------------------------x\--------||
|-------------------------------------------------------x\--------||
|-----------------------------------------------------------------||
|-----------------------------------------------------------------||
|
|  S  a  S     S  S  E        S     S  S      E      S  E   S   S
|-----------------------------------------------------------------||
|-----------------------------------------------------------------||
|----12h14----12----12-------14----12--------14-----14-12---------||
|----------------14----------------------------------------14p=12-||
|-12--------------------------------------------------------------||
|-----------------------------------------------------------------||
|
|  S     S     S  S  E        S     S  S      E      S  E   E
|-----------------------------------------------------------------||
|-----------------------------------------------------------------||
|-----------------------------------------------------------------||
|--------7-----5-----5--------7-----5---------7------7--5---------||
|-----------------7-----------------------------------------7\----||
|--5-----------------------------------5--------------------------||


 Guitar Interlude
  N.(E6)
  Gtr III
      ~~~           ~~
  a   Q     S S  E  H
|-----------------------------------|
|-----------------------------------|
|-7h==9-----9-------9---------------|
|-------------9-11------------------|
|-----------------------------------|
|-----------------------------------|
|
| Gtr I
|     E  E  E    E  E  E  S S  S  S
|--------9-------9-----9----9--9--9-|
|-----------------------------------|
|----/9-----9-------9-----9---------|
|-----------------------------------|
|-----------------------------------|
|-----------------------------------|
|
| Gtr II
|     E  E  E    E  E  E  E    S  S
|-------16------16-16----16---16s14-|
|-------------------x----------x----|
|---/16----16------16-16------16s14-|
|-----------------------------------|
|-----------------------------------|
|-----------------------------------|


  (D6)
                        ~~
   e  S S a   E      e  H
|---------------------------------------------|
|-------------------10------------------------|
|--7--7-7-9s=11---------7---------------------|
|---------------------------------------------|
|---------------------------------------------|
|---------------------------------------------|
|
|  E  E       S   S  E  S S  S  S  S a E.
|-----7--------------7--7-7--7--7--7-7s9------|
|-----------------------x-x--x--x--x---x------|
|--7----------7---7-----7-7--7--7--7-7s9------|
|---------------------------------------------|
|---------------------------------------------|
|---------------------------------------------|
|
|     ~~~~~~~~~~~
|  E  E      +S   S  E  E    S  S  E       E
|----14-----(14)-------14---14-14-14------14\-|
|-----------------------x----x--x--x-------x--|
|-14-------------14-14-14---14-14-14------14\-|
|---------------------------------------------|
|---------------------------------------------|
|---------------------------------------------|


  (F#6)
  a  e  S S a   S S  e  E.       S  S  E.
|--------------------------------------------|
|-----------------------9b11-----7--9--9-----|
|-----------------6--8-----------------8-----|
|-2s=4--4-4-6s==8----------------------------|
|--------------------------------------------|
|--------------------------------------------|
|
| a  E  E       E    E  E     S  S  S  S   E
|-9s11-11-----/11---11-11----11-11-11-11--11-|
|----x--x-------x----x--x-----x--x--x--x---x-|
|-9s11-11-----/11---11-11----11-11-11-11--11-|
|--------------------------------------------|
|--------------------------------------------|
|--------------------------------------------|
|
|       ~~
|    E  Q            E  E     E     S  S   E
|---11--------------11-------11-----------11-|
|--------------------------------------------|
|------11--------------11----------11-11-----|
|--------------------------------------------|
|--------------------------------------------|
|--------------------------------------------|


  (G6)                          (A6)
    e     S  S a  S  S  E        e     S  S a  S  S  e
|---------------------------------------------------------|
|---------------------------------------------------------|
|--------------------7--9-------------------------9--9----|
|--/5-----5--5-7s=9-------------/7-----7--7-9s11----------|
|---------------------------------------------------------|
|---------------------------------------------------------|
|
|   S  S  S  S    S  S  S  S     S  S  S  S    S  S  S  S
|--12-12-12-12---12-12-12-12----12-14-14-14---14-14-16-16-|
|---x--x--x--x----x--x--x--x-----x--x--x--x----x--x--x--x-|
|--12-12-12-12---12-12-12-12----12-14-14-14---14-14-16-16-|
|---------------------------------------------------------|
|---------------------------------------------------------|
|---------------------------------------------------------|
|
|   S  S  S  S    E     S  S  a  E     S  S    S  S  S  S
|-/12-12-12-12---------12-12-12s14----14-14---14-14-16-16-|
|---x--x--x--x----------x--------x-----x--x----x--x--x--x-|
|-/12-12-12-12---12----12----12s14----14-14---14-14-16-16-|
|---------------------------------------------------------|
|---------------------------------------------------------|
|---------------------------------------------------------|


  (E)
   E     +E     E     E    E          +S   S   E    E
|--------------------12--------------------------------|
|--------------12--------------------------------------|
|-11b13-(11)--------------11b13r=====(11)p(9)-------9--|
|---------------------------------------------11-------|
|------------------------------------------------------|
|------------------------------------------------------|
|
|  Q            E     E    S     +E        S   E    E
|-14b16--------14b16------14b16r(14)p=====12-------12--|
|---------------------------------------------14-------|
|------------------------------------------------------|
|------------------------------------------------------|
|------------------------------------------------------|
|------------------------------------------------------|
|
|  E      S  S  E     S S  S      S    E       S S  E
|------------------------------------------------------|
|------------------------------------------------------|
|---------9--9--------9-9--------------9------------9\-|
|--------------------------------------x---------------|
|--7------------7----------------------7-------7-7-----|
|--------------------------0------0--------------------|


  (D6)
   E    +Q       S      +S   +E      Q.
|-----------------------------------10------------------|
|---------------10-----(10)-(10)------------------------|
|--9b11r(9)------9b11===(9)r=(9)------------------------|
|-------------------------------------------------------|
|-------------------------------------------------------|
|-------------------------------------------------------|
|
|  H                          S   S  S   S  S  S  S   S
|-------------------------------------------------------|
|-12--------------------------------15-----15-----------|
|--------------------------------16-----16----16S18--18-|
|-------------------------------------------------------|
|-------------------------------------------------------|
|-------------------------------------------------------|
|
|  E     E  S S  E            S   S  E      S  S  E
|-------------------------------------------------------|
|-------------------------------------------------------|
|--------7-------7-------------------7------7--7--7\----|
|-------------------------------------------x--x--------|
|--5--------5-5---------------5---5---------5--5--------|
|-------------------------------------------------------|


  (F#6)
   E       +E     E    E    E    S      +S   +Q
|---------------------14-------------------------------|
|----------------14--------14--------------------------|
|-13b15---(13)------------------13b15==(13)r(13)-------|
|------------------------------------------------------|
|------------------------------------------------------|
|------------------------------------------------------|
|
|  Q              E    E    Q                 Q
|------------------------------------------------------|
|------------------------------------------------------|
|------------------------------------------------------|
|-16-------------16---16---16--------------------------|
|------------------------------------------------------|
|------------------------------------------------------|
|
|  PM
|  S    S   S  S  S S  S S  S S  S       S    S  S S S
|------------------------------------------------------|
|------------------------------------------------------|
|------------------------------------------------------|
|--4----4---4--4-------4-4-------4-------4---------4-4-|
|-----------------4-4-------4-4---------------4--4-----|
|------------------------------------------------------|


  (G6)                   (A6)
   E       E    E    E    E       E          E    E
|--------------15---15----------------------17----x\-|
|---------15--------15-----------17---------17----x\-|
|-14b16------------------16b18-----------------------|
|----------------------------------------------------|
|----------------------------------------------------|
|----------------------------------------------------|
|
|  Q.                E    E       S     +S   E    E
|------------------------14-----------------17---15--|
|--------------------------------17b19-(17)----------|
|----------------------------------------------------|
|-17----------------17-------------------------------|
|----------------------------------------------------|
|----------------------------------------------------|
|
|  S    S  S S  S S  S S  S    S  S      S   S S  E
|----------------------------------------------------|
|----------------------------------------------------|
|----------------------------------------------------|
|----------5-5-------5-5----------7------7--------7\-|
|----------------------------------------------------|
|--3----3-------3-3-------5----5-------------5-5-----|


  (E)
  a   E     S  S  S  S  S  S   S  S  S  S  S  S  S  S
|-----------------------------------------------------|
|-----------------------------------------------------|
|-----------9-----9-11--9------------9-----9-11--9--9-|
|-9s=11-------11-----------9---9-11----11-------------|
|-----------------------------------------------------|
|-----------------------------------------------------|
|
|     S  S  S  S  S  S  S  S   S  S  S  S  S  S  S  S
|---/16-16-16-16-16-16-16-16-/16-16-16-16-16-16-16-16-|
|-----x--x--x--x--x--x--x--x---x--x--x--x--x--x--x--x-|
|---/16-16-16-16-16-16-16-16-/16-16-16-16-16-16-16-16-|
|-----------------------------------------------------|
|-----------------------------------------------------|
|-----------------------------------------------------|
|
|     E     S  S  E     S  S   S  S  S  S  S  S  S  S
|-----------------------------------------------------|
|-----------------------------------------------------|
|-----------9--9--------9--9---------9--9--------9--9-|
|-----------------9------------------------9--9-------|
|-----7-----------7------------7--7-------------------|
|-----------------------------------------------------|


  (D)
   S  S  S  S  S  S  S  S  S  S  S  S  S  S  S  S
|--------------------------------------------------|
|--------------------------------------------------|
|--------7-----7--7--9--7--------7-----7--9--7--7--|
|--7--9-----9--------------7h=9-----9--------------|
|--------------------------------------------------|
|--------------------------------------------------|
|
|  S  S  S  S  S  S  S  S  S  S  S  S  S  S  S  S
|-14-14-14-14-14-14-14-14-14-14-14-14-14-14-14-14--|
|--x--x--x--x--x--x--x--x--x--x--x--x--x--x--x--x--|
|-14-14-14-14-14-14-14-14-14-14-14-14-14-14-14-14--|
|--------------------------------------------------|
|--------------------------------------------------|
|--------------------------------------------------|
|
|  E     S  S  E     S  S  E     S  S  E     S  S
|--------------------------------------------------|
|--------------------7--7--------------------------|
|--------7--7--------7--7--------7--7--------7--7\-|
|--------------7-----------------------7-----7--7\-|
|--5-----------5-----------5-----------------------|
|--------------------------------------------------|


  (F#6)
    E     S  S  S  S  S  S   S  S  S  S  S  S  S  S
|---------------------------------------------------|
|---------------------------------------------------|
|--------11----11-11-13-11--11----11----11-11-13-11-|
|-/13-------13-----------------13----13-------------|
|---------------------------------------------------|
|---------------------------------------------------|
|
|   S  S  S  S  S  S  S  S   S  S  S  S  S  S  S  S
|-/11-11-11-11-11-11-11-11-/11-11-11-11-11-11-11-11-|
|---x--x--x--x--x--x--x--x---x--x--x--x--x--x--x--x-|
|-/11-11-11-11-11-11-11-11-/11-11-11-11-11-11-11-11-|
|---------------------------------------------------|
|---------------------------------------------------|
|---------------------------------------------------|
|
|   E     S  S  S  S  S  S   E     S  S  S  S  S  S
|---------------------------------------------------|
|---------------------------------------------------|
|---------------------------------------------------|
|--/4-----4--4--------4--4---4-----4--4--------4--4-|
|---------------4--4---------------------4--4-------|
|---------------------------------------------------|


  (G6)                     (A6)
   a   E  S  S  S  S  S  S  S  S  S  S  S  S  S  S
|---------------------------------------------------|
|---------------------------------------------------|
|--------12----12-12-14-12-------14----14-14-14-13--|
|-13s=14----14-------------14s16----16--------------|
|---------------------------------------------------|
|---------------------------------------------------|
|
|      E  S  S  S  S  S  S  E     S  S  S  S  S  S
|----/12-12-12-12-12-12-12S14----14-14-15-15-15-16--|
|------x--x--x--x--x--x--x--x-----x--x--x--x--x--x--|
|----/12-12-12-12-12-12-12S14----14-14-15-15-15-16--|
|---------------------------------------------------|
|---------------------------------------------------|
|---------------------------------------------------|
|
|      E  S  S  E     S  S  E     S  S  S  S  S  S
|---------------------------------------------------|
|---------------------------------------------------|
|---------4--4--------4--4--------------------------|
|---------5--5--------5--5--------------------------|
|------------------------------------------------x--|
|------3--------3----------/5-----5--5--5--5--5-----|


  (E)
   E         S  S   S      S   S      S   S      S   S      S   S      S   S      S
|-----------12-12--12-----12--12-----12--12-----12--12-----12--12-----12--12-----12--|
|-15b17=====15-15r-15b17==15r-15b17==15r-15b17==15r-15b17==15r-15b17==15r-15b17==15r-|
|------------------------------------------------------------------------------------|
|------------------------------------------------------------------------------------|
|------------------------------------------------------------------------------------|
|------------------------------------------------------------------------------------|
|
|  S      S  S  S   S      S   S      S   S      S   S      S   S      S   S      S
|-16-----16-16-16--16-----16---------16--16-----16---------16--16-----16--16-----16--|
|--x------x--x--x---x------x--17------x---x------x--17------x---x------x---x------x--|
|-16-----16-16-16--16-----16---------16--16-----16---------16--16-----16--16-----16--|
|------------------------------------------------------------------------------------|
|------------------------------------------------------------------------------------|
|------------------------------------------------------------------------------------|
|
|  E         S  S   E          S      S   E          S      S   E          S      S
|------------------------------------------------------------------------------------|
|------------------------------------------------------------------------------------|
|------------9--9--------------9------9--------------9------9--------------9s=====7--|
|------------x--x--------------x------x--------------x------x--------------x---------|
|------------7--7--------------7------7--------------7------7--------------7s=====5--|
|--0----------------0---------------------0---------------------0--------------------|


  (D)
   S      S  S   S      S  S   S      S  S   S      S  S   S      S  S   S
|-12-----12-12--12-----12-12--12-----12-12--12-----12-12--12-----12-12s=14--|
|-15b17==15-15r-15b17==15-15r-15b17==15-15r-15b17==15-15r-15b17==15-15r-----|
|---------------------------------------------------------------------------|
|---------------------------------------------------------------------------|
|---------------------------------------------------------------------------|
|---------------------------------------------------------------------------|
|
|  S      S  S   S      S  S   S      S  S   S      S  S   S      S  S   S
|-19-----19-19--19-----19-19--19-----19-19--19-----19-19--19-----19-19--19--|
|--x------x--x---x------x--x---x------x--x---x------x--x---x------x--x---x--|
|-19-----19-19--19-----19-19--19-----19-19--19-----19-19--19-----19-19--19--|
|---------------------------------------------------------------------------|
|---------------------------------------------------------------------------|
|---------------------------------------------------------------------------|
|
|  E         S   S      E      S      S  E          S  S   E         S   S
|---------------------------------------------------------------------------|
|---------------------------------------------------------------------------|
|--7---------7---7------7-----/7------7--7----------7--7---7---------7---7\-|
|--x---------x---x------x------x------x--x----------x--x---x---------x---x--|
|--5---------5---5------5-----/5------5--5----------5--5---5---------5---5\-|
|---------------------------------------------------------------------------|


  (F#6)
                                                ~~~
    S      S  S   S      S  S   S      S  S  S  E      E        S      S
|--14-----14-14--14-----14-14--14-----14-14-14-14-----14-------14------x-|
|--17b19==17-17r-17b19==17-17r-17b19==17-17-17-17r----17b19----17pb19--x-|
|------------------------------------------------------------------------|
|------------------------------------------------------------------------|
|------------------------------------------------------------------------|
|------------------------------------------------------------------------|
|
|   S      S  S   S      S  S   S      S  S  S  S   S  S     S  S      S
|-/11-----11-11--11-----11-11--11-----11-11-11-11--11-11----11-11-----11-|
|---x------x--x---x------x--x---x------x--x--x--x---x--x-----x--x------x-|
|-/11-----11-11--11-----11-11--11-----11-11-11-11--11-11----11-11-----11-|
|------------------------------------------------------------------------|
|------------------------------------------------------------------------|
|------------------------------------------------------------------------|
|
|   E         S   S      E      S      S  E     S   S  E        S      S
|------------------------------------------------------------------------|
|------------------------------------------------------------------------|
|------------------------------------------------------------------------|
|-------------4---4-------------4------4--------4---4-----------4------4-|
|------------------------------------------------------------------------|
|---2--------------------2----------------2------------2-----------------|


  (G6)                      (A6)
   E     S  S  S  S  E       E     S  S  S  E.
|-15----15-15-15-15-15------17----17-17-17-17\---||
|-18----18-18-18-18-18------20----20-20-20-20\---||
|------------------------------------------------||
|------------------------------------------------||
|------------------------------------------------||
|------------------------------------------------||
|
|  S  S  S  S  S  S  S  S    S  S  S  S  S  E.
|-12-12-12-12-12-12-12-12---14-14-14-14-14-14\---||
|--x--x--x--x--x--x--x--x----x--x--x--x--x--x----||
|-12-12-12-12-12-12-12-12---14-14-14-14-14-14\---||
|------------------------------------------------||
|------------------------------------------------||
|------------------------------------------------||
|
|  E     S  S  S  S  E    a  E     S  S  S  S  E
|------------------------------------------------||
|------------------------------------------------||
|------------------------------------------------||
|--------5--5--------5-------------7--7--------7-||
|------------------------------------------------||
|--3-----------3--3-------3s=5-----------5--5----||


 Outro
  N.(E7)
  Gtr II
  E     E     +S  S e   e e E E   E E      S S e   e e E E
|-------------------------------|--------------------------|
|-----------------------0-0-----|--------------------------|
|-----------------------0-0-----|------------------4-4-----|
|-------------------2---x-x-----|--------------2---x-x-----|
|-----------------2-----5-5-4-2-|------------2-----5-5-4-2-|
|-0-----5b7---(5)---------------|-0-5b7----5---------------|
|
| Gtr I
| E a a S   S  E    S S e e e e   E S   S  E   S S e e E E
|--------------4----0-x---------|---0---0-/4---x-x---------|
|-------------------0-x---------|---0---0-/3---x-x---------|
|-------2s==4-(4)-------4-4-0---|---------/4---x-x-4-4-----|
|-----x-----------------x-x-x---|------------------x-x-----|
|---x-------------------5-5-4-2-|------------------5-5-4-2-|
|-0-----------------------------|-0------------------------|


  E E     +S  S E   e e E   E   E E     +S  S E     E S S a  E   E
|-----------------------------|--------------------------------------|
|-----------------------------|---------------------0-0-0------------|
|-----------------------------|---------------------0-0-0------------|
|---------------2---5-5-4---2-|---------------2-----x-x--------------|
|-------------2-----5-5-4---2-|-------------2-------5-5---2s=4---2---|
|-0-5b7---(5)-----------------|-0-5b7---(5)--------------------------|
|
| E S   S  E    S S e e S S E   E S   S  E    S S a E S S    S S S S
|---0---0--4----x-x-----------|---0---3s=4------0---0-0-0---/7-7-7-x-|
|---0---0--x----x-x-----------|---0---x-------0---3s5-5-5----x-x-x-x-|
|----------4----x-x-4-4-------|-------3s=4----------0-------/7-7-7-x-|
|-------------------x-x-----2-|--------------------------------------|
|-------------------5-5-2h4---|--------------------------------------|
|-0---------------------------|-0------------------------------------|


  Gtr III
   E      S    S  S   +S   E      E            S   S   S     a  +S      e
|-17b19==17---17-17r=(17)-15-----17b19========17--17--17----17r(17)p===15------|
|------------------------------------------------------------------------------|
|------------------------------------------------------------------------------|
|------------------------------------------------------------------------------|
|------------------------------------------------------------------------------|
|------------------------------------------------------------------------------|
|
| Gtr II
|  E      E      +S    S   E      S    +S     +S  +S   S        +S     +S  +S
|------------------------------------------------------------------------------|
|------------------------------------------------------------------------------|
|------------------------------------------------------------------------------|
|--------------------------2---------------------------------------------------|
|----------------------2----------4pb5r(4)b5==(4)r(4)--4pb5r====(4)b5==(4)r(4)-|
|--0------5b7----(5)-----------------------------------------------------------|
|
| Gtr I
|  E      S    S  S    E     S a  E            S   S   S         E.
|---------0----0-/4----------------------------0---0-------------7\------------|
|---------0----0--x----3-----------------------0---0-------------x-------------|
|----------------/4----4-----0-2s=4-------------------/7---------7\------------|
|------------------------------------------------------------------------------|
|------------------------------------------------------------------------------|
|--0---------------------------------------------------------------------------|


                                             |----3-----|
   E      S    S  S   +S   e    E      S  S  S  +S      S E
|-17b19==17---17-17r=(17)-15---17b19==17-17-17r(17)p===15----|
|------------------------------------------------------------|
|------------------------------------------------------------|
|------------------------------------------------------------|
|------------------------------------------------------------|
|------------------------------------------------------------|
|
|  E      E      +S    S   E    E      E     E            E
|------------------------------------------------------------|
|-------------------------------0------0---------------------|
|-------------------------------0------0---------------------|
|--------------------------2----x------x------------------2--|
|----------------------2--------5------5-----4------------2--|
|--0------5b7----(5)-----------------------------------------|
|
|  E      S    S  S    S   S S  E      S  S  S      E.
|---------0----0-/4----4---------------0--0-/7------9\-------|
|---------0----0-/3----3---x----0------0--0--x------x--------|
|----------------/4----4---x-0--4------4--4-/7------9\-------|
|-------------------------------x----------------------------|
|-------------------------------5----------------------------|
|--0---------------------------------------------------------|


   E      S    S  S   +S   E    E      S  S  S  +S   e
|-17b19==17---17-17r=(17)-15---17b19==17-17-17r(17)-15-|
|------------------------------------------------------|
|------------------------------------------------------|
|------------------------------------------------------|
|------------------------------------------------------|
|------------------------------------------------------|
|
|  E      E      +S    S   E    e      E     E       E
|------------------------------------------------------|
|------------------------------------------------------|
|--------------------------------------4---------------|
|--------------------------2-----------x-------------2-|
|----------------------2--------5------5-----4-------2-|
|--0------5b7----(5)-----------------------------------|
|
|  E      S    S  E        S S  e      S  S  E       E
|---------0----0-/4--------------------0--0------------|
|---------0----0--x--------x-----------0--0------------|
|----------------/4--------x-----------4--4--2---------|
|--------------------------x-----------------x-------2-|
|-------------------------------5------------4-------2-|
|--0-------------------------0-------------------------|


                |-----3-----|                   |---3---|
   E      S  S  S    +S     S E    E      S  S  S  +S   S E
|-17b19==17-17-17r==(17)p==15-----17b19==17-17-17r(17)p15------|
|--------------------------------------------------------------|
|--------------------------------------------------------------|
|--------------------------------------------------------------|
|--------------------------------------------------------------|
|--------------------------------------------------------------|
|
|  e      E     e             E    e      E     E         E
|--------------------------------------------------------------|
|-----------------------------------------0--------------------|
|-----------------------------------------0--------------------|
|---------2-------------------2-----------x---------------2----|
|---------2-------------------2----5------5-----4---------2----|
|--5b7----------5b7--------------------------------------------|
|
|  E      S  S  S        S    S S  E      E     E         S S
|--------/4--4-/4--------4-------------------------------------|
|---------x--x--x--------x----0-0------------------------------|
|--------/4--4-/4--------4----0-0--4------4-----4--------------|
|----------------------------------x------x-----x--------------|
|----------------------------------5------5-----5--------------|
|--0------------------------------------------------------0-0--|


                |-----3-----|                   |----3----|
   E      S  S  S    +S     S E  E        S  S  S  +S     S E
|-17b19==17-17-17r==(17)p==15---17b19====17-17-17r(17)p==15----|
|--------------------------------------------------------------|
|--------------------------------------------------------------|
|--------------------------------------------------------------|
|--------------------------------------------------------------|
|--------------------------------------------------------------|
|
|  E      E     S        S    E  e        E     E           E
|--------------------------------------------------------------|
|--------------------------------------------------------------|
|--------------------------------------------------------------|
|---------2-------------------2--5--------5-----------------2--|
|---------2--------------2-------5--------5-----4-----------2--|
|--5b7----------5b7--------------------------------------------|
|
|  E      E     E             E  S     S  S  S  S      S    E
|---------0----/4-------------0--7-----7--7--7--9------9----x\-|
|---------0----/3-------------0--x-----x--x--x--x------x----x\-|
|---------1----/4----------------7-----7--7--7--9------9----x\-|
|--------------------------------------------------------------|
|--------------------------------------------------------------|
|--0-----------------------------------------------------------|


   E      S  S  S    +S      +E     E      S   s S  E.
|-17b19==17-17-17r==(17)b19-(17)---17b19==17r-17---19b21\----|
|------------------------------------------------------------|
|------------------------------------------------------------|
|------------------------------------------------------------|
|------------------------------------------------------------|
|------------------------------------------------------------|
|
|  E      E     S     S       E     e      S   S E        E
|------------------------------------------------------------|
|------------------------------------------------------------|
|-----------------------------------4------4---4-------------|
|---------2-------------------2-----x------x---x----------2--|
|---------2-----------2-------------5------5---5-4--------2--|
|--5b7----------5b7------------------------------------------|
|
|  E      E     E             S  S  e      S   S S  E.
|---------0----/4--------------------------0---0-------------|
|---------0-----x-------------0--0---------0---0-------------|
|--------------/4-------------0--0--4------4---4----6\-------|
|-----------------------------------x------x---x----x--------|
|-----------------------------------5------5---5----7\-------|
|--0---------------------------------------------------------|


   E      S  S   S  E.           E      S   S  S  E.        H                    +E   E      +S   S   E
|-17b19==17-17r-17-19b22\-------17b19==17r-17----21b24---|-21b24----------------(21)-21b24==(21)-21r-21\------|
|--------------------------------------------------------|----------------------------------------------------|
|--------------------------------------------------------|----------------------------------------------------|
|--------------------------------------------------------|----------------------------------------------------|
|--------------------------------------------------------|----------------------------------------------------|
|--------------------------------------------------------|----------------------------------------------------|
|
|  Q            +S  S     E      e      e      E       E    Q         +S  S E     E   E       E       S   +S
|--------------------------------------------------------|----------------------------------------------------|
|--------------------------------------------------------|----------------------------------------------------|
|--------------------------------4------4----------------|----------------------------------------------------|
|-------------------------2------x------x----------------|------------------2---------------------------------|
|-------------------2------------5------5------4-------2-|----------------2-------5---5-------4---------------|
|--5b7----------(5)--------------------------------------|--5b7-------(5)-----------------------------5b7-(5)-|
|
|  E      E      S  S     S S a  E      E      S  E.        E     S S  E    S S   E   E       S   E.
|---------0---------------0------0------0-----/7--7\-----|-------!0-0-/4--------------0------/9---9\----------|
|---------0---------------3-0-3s=5------5------x--x------|-------!0----0----0-0-------0-------x---x-----------|
|----------------0h=1-------0-----------------/7--7\-----|------------------0-0--/4---4------/9---9\----------|
|--------------------------------------------------------|------------------------x---------------------------|
|--------------------------------------------------------|-----------------------/5---------------------------|
|--0-----------------------------------------------------|--0-------------------------------------------------|


   E      S  S   E        S  S   E     S  S    E    s  s
|----------------------------------------------------------|
|-15b17==15-15r-15b17====15-15r----------------------------|
|-------------------------------14b16-12-12--------12-12---|
|---------------------------------------------14---12-12---|
|----------------------------------------------------------|
|----------------------------------------------------------|
|
|  Q            +S     S  E      E     E    a  E    E
|----------------------------------------------------------|
|----------------------------------------------------------|
|----------------------------------------------------------|
|-------------------------2--------------------------------|
|----------------------2---------5-----5----2h=4----2------|
|--5b7----------(5)----------------------------------------|
|
|  E      S  S   E        S  S   E     E       S S  S  s
|---------0--0--/4----------------------------/9-9--9------|
|---------0--0---x--------0--0-----------------x-x--x-(8)--|
|---------------/4--------0--0---4-----4------/9-9--9------|
|--------------------------------x-----x-------------------|
|--------------------------------5-----5-------------------|
|--0-------------------------------------------------------|


   S     S  S  S  S     S  S  S  a      +e   S      S  S  S   S  S
|-------12-12-12-------12-12-12-------------12-----12-12-12--12-12-----|
|-15b17----------15b17----------15pb17r(15)-15b17==15-15-15r-15-15pb17-|
|----------------------------------------------------------------------|
|----------------------------------------------------------------------|
|----------------------------------------------------------------------|
|----------------------------------------------------------------------|
|
|  Q             +S     S  E             e   E         E      E
|----------------------------------------------------------------------|
|----------------------------------------------------------------------|
|----------------------------------------------------------------------|
|--------------------------2----------------------------------2--------|
|-----------------------2----------------5---5---------4------2--------|
|--5b7-----------(5)---------------------------------------------------|
|
|  E        S  S  S     S  S  S          E   S      S  S  S   S  S
|----------/4--4-/4-----4--4--4----------3---0------0-/7--7---7--x\----|
|----------/3--3-/3-----3--3--3----------x---0------0--x--x---x--x\----|
|----------/4--4-/4-----4--4--4----------3---2--------/7--7---7--x\----|
|----------------------------------------------------------------------|
|----------------------------------------------------------------------|
|----------------------------------------------------------------------|


   Q        S     +S   S  S  E       S  S  E     S   S
|-14b16----14b16r(14)-12-12-12------12-12-12----12--12-|
|---------------------------15b17---------15b17--------|
|------------------------------------------------------|
|------------------------------------------------------|
|------------------------------------------------------|
|------------------------------------------------------|
|
|  Q       +S      S   E     E       E     E     E
|------------------------------------------------------|
|------------------------------------------------------|
|----------------------------4-------4-----------------|
|----------------------2-----x-------x-----------------|
|------------------2---------5-------5-----4-----2-----|
|--5b7-----(5)-----------------------------------------|
|
|  E     E  E          S  S  S    S  S  S  E     E
|-------!0-/4----------0----/7----7--0--0-/9-----x\----|
|-------!0-/3----------0-----x----x--------x-----x\----|
|----------/4----------2p=0-/7----7-------/9-----x\----|
|------------------------------------------------------|
|------------------------------------------------------|
|--0---------------------------------------------------|


   E      S  S  S   S  S   S      E  S   S   E  E
|-------------------------------------------------|
|--------12-12-12--12-12--15-----15-15-(15)-------|
|-14b16==14-14-14--14-14r-14b16==14-14r=14--12----|
|----------------------------------------------14-|
|-------------------------------------------------|
|-------------------------------------------------|
|
|  Q           +S   S  E          E  E       E  E
|-------------------------------------------------|
|-------------------------------------------------|
|-------------------------------------------------|
|----------------------2--------------------------|
|-------------------2-------------5--5-------4--2-|
|--5b7---------(5)--------------------------------|
|
|  E      S  S  S   S  S   S      E  S   S   E  E
|--------/4--4-/4---4--4---4------3--0---0--------|
|--------/3--3-/3---3--3---3------x--0---0--------|
|--------/4--4-/4---4--4---4------3----------2----|
|--------------------------------------------x--2-|
|--------------------------------------------4--2-|
|-------------------------------------------------|


   E  S    S   a  E     E    E    E  Q
|-----------------------------------------*|
|-----------------------------------14\---*|
|-----------------------------------------*|
|-12-12---12------------------------------*|
|-------------14s12----10-----------------*|
|---------------------------12---10-------*|
|
|  E  S   +S     +S  S  E    E    E  E  E
|-----------------------------------------*|
|-----------------------------------------*|
|-----------------------------------------*|
|-----------------------2---------5--4----*|
|--------------------2-------5----5--4--2-*|
|--0--5b7-(5)----(5)----------------------*|
|
|  E  E           E     S S  S S  E  Q
|-----0----------/4-----0---/7-7--0-/9----*|
|-----0----------/3-----0----x-x-----x----*|
|----------------/4-----2p0-/7-7----/9----*|
|-----------------------------------------*|
|-----------------------------------------*|
|--0--------------------------------------*|


Duration Legend
---------------
W - whole; H - half; Q - quarter; E - 8th; S - 16th; T - 32nd; X - 64th; a - acciaccatura
+ - note tied to previous; . - note dotted; .. - note double dotted
Uncapitalized letters represent notes that are staccato (1/2 duration)
Irregular groupings are notated above the duration line
Duration letters will always appear directly above the note/fret number it represents the
duration for.  Duration letters with no fret number below them represent rests.  Multi-
bar rests are notated in the form Wxn, where n is the number of bars to rest for.  Low
melody durations appear below the staff

Tablature Legend
----------------
 h   - hammer-on
 p   - pull-off
 b   - bend
 pb  - pre-bend
 r   - bend release (if no number after the r, then release immediately)
 /\  - slide into or out of (from/to "nowhere")
 s   - legato slide
 S   - shift slide
  - natural harmonic
[n]  - artificial harmonic
n(n) - tapped harmonic
 ~   - vibrato
 tr  - trill
 T   - tap
 TP  - trem. picking
 PM  - palm muting
\n/  - tremolo bar dip; n = amount to dip
 \n  - tremolo bar down
 n/  - tremolo bar up
/n\  - tremolo bar inverted dip
 =   - hold bend; also acts as connecting device for hammers/pulls
 <>  - volume swell (louder/softer)
 x   - on rhythm slash represents muted slash
 o   - on rhythm slash represents single note slash

Misc Legend
-----------
 |  - bar
||  - double bar
||o - repeat start
o|| - repeat end
*|  - double bar (ending)
 :  - bar (freetime)
 $  - Segno
 &  - Coda
Tempo markers -  = BPM(8/16=s8/s16), where s8 = swing 8ths, s16 = swing 16ths


***************************************************************************************
* Generated using Power Tab Editor by Brad Larsen - http://powertab.guitarnetwork.org *
***************************************************************************************
comments
print report bad tab
I want to post or [tab]
guest
You may want to rate the tab now too:
select rating
Please do not post tabs as comments. Select "correction" instead!