Oops, an error
Loading. Please wait.

Night Bird Flying Tab

7,786 views 30 this week
no commentswrite comment
1 2 3 4 5
excellent!
x 4
Autoscroll
+/-
esc
set tempo
stop
WARNING: You are trying to view
                                    content from Ultimate-Guitar.com
                                    in an unauthorized application,
                                    which is prohibited.

                                    Please use an official Ultimate
                                    Guitar Tabs application for iPhone,
                                    iPad or Android to access legitimate
                                    chords, guitar, bass, and drum tabs
                                    from Ultimate-Guitar.com database.

                                    Type "ultimate guitar tabs" in Apple
                                    App Store's or Android Market's
                                    search to find the application.
#----------------------------------PLEASE NOTE---------------------------------#
#This file is the author's own work and represents their interpretation of the #
#song. You may only use this file for private study, scholarship, or research. #
#------------------------------------------------------------------------------##

                                NIGHT BIRD FLYING
                           As recorded by Jimi Hendrix
                    (From the 1998 Album EXPERIENCE HENDRIX)

Words and Music by Jimi Hendrix
Transcribed by Brian Gevin

Gtr I (Eb Ab Db Gb Bb Eb) - 'Electric Guitar 1'
Gtr II (Eb Ab Db Gb Bb Eb) - 'Electric Guitar 2'
Gtr III (Eb Ab Db Gb Bb Eb) - 'Electric Guitar 3'
Gtr IV (Eb Ab Db Gb Bb Eb) - 'Electric Guitar 5'

 Intro
  Moderate Rock Q=108
              N.C.(E6)              (D6)
 4/4
  Gtr III
  a a Q         Q   Q   E  Q    E   Q    Q   Q   E S S
|-----xs====|===xs==xs==x-------xs|=xs===x-------------|
|-----xs====|===xs==xs==x--x/---xs|=xs===x---xs==x-xsx-|
|-----xs====|===xs==xs==x--x/---xs|=xs===x---xs==x-xsx-|
|---x-------|--------------x/-----|----------xs==x-xsx-|
|-x---------|---------------------|--------------------|
|-----------|---------------------|--------------------|
|
| Gtr II
|     S  E.     Q   Q   Q     Q     W
|--------xs=|===xS==xs==x\----0---|--------------------|
|-----------|-------xs==x\--------|-x\-----------------|
|-----------|---------------------|-x\-----------------|
|-----------|---------------------|-x\-----------------|
|-----------|---------------------|--------------------|
|-------(0)-|---------------------|--------------------|
|
| Gtr I
|             ~~~~~~~~~~~~~~~~~~~~~~~~~~~~~~~~~~~~~~~~~~
|     Q       a E E E E E  E  E E   E  E E E E E E E
|-----------|-----9---9----9----9-|----7---7---7---7---|
|-----------|---------------------|--------------------|
|-----------|-7s9---9---9-----9---|-7----7---7---7-----|
|-----------|---------------------|--------------------|
|-----------|---------------------|--------------------|
|-----------|---------------------|--------------------|


    (F#6)                        (G6)            (A6)
     W                            W
|---------------------------|---------------------------------|
|---------------------------|---------------------------------|
|----xs=====================|=====x/--------------------------|
|----xs=====================|=====x/--------------------------|
|----xs=====================|=====x/--------------------------|
|---------------------------|---------------------------------|
|
|    W                            W
|---------------------------|---------------------------------|
|----xs=====================|=====x/--------------------------|
|----xs=====================|=====x/--------------------------|
|----xs=====================|=====x/--------------------------|
|---------------------------|---------------------------------|
|---------------------------|---------------------------------|
|
|~~~~~~~~~~~~~~~~~~~~~~~~~~~~~~~~~~~~~~~~~~~~~~~~~~~~~~~~~~
| a  E  E  E  E  E  E  E  E    a  E   E  E  E  a  E  E  Q
|------11----11----11----11-|--------12----12-------14--------|
|---------------------------|---------------------------------|
|-7s11----11----11----11----|-11s12-----12----12s14----14\----|
|---------------------------|---------------------------------|
|---------------------------|---------------------------------|
|---------------------------|---------------------------------|


  E                     E7/A
  Gtr IV
   ~~~~~
   H                  S  S      +S  S  S      +S   +S  S
|--------------------------------------------------------|
|-10b12-----------------10pb12r(10)-9-10b12==(10)r(10)-9h|
|--------------------------------------------------------|
|--------------------------------------------------------|
|--------------------------------------------------------|
|--------------------------------------------------------|
|
| Gtr I
|  E    E a E  S   S  E          E     E            E
|---------2s4--------------------------------------------|
|-----------x--------------------------------------------|
|-------1-2s4-(0)-(0)------------4-----4-----------------|
|-------2------------------------x-----x-----------------|
|---------------------5----------5-----5------------5\---|
|--0-----------------------------------------------------|


  E                E7/A            E7                      E7/A
           ~                                ~~~~
                                                        |-----3------|
   S S E   Q     E S  S S S  S S    E      +Q.         +E   E       +E  E a  E
|--------------------------------|-------------------------------------------------|
|-10p9---------------------------|-------------------------------------------------|
|------9----------------9------9-|-11b13==(11)--------(11)-11b13r==(11)-9----------|
|----------9-------9h11---9h11---|----------------------------------------9h11-----|
|--------------------------------|-------------------------------------------------|
|--------------------------------|-------------------------------------------------|
|
|  E   E a E S S E E    S S  E      E       E   E S S   E        E      E    S S
|------0-2s4---------------------|----------0--------------------------------------|
|------0---x------------0-0------|----------0---------------------------0----------|
|--------2s4-4-0---4----4-4------|----------1--/4-4-4-------------------4----------|
|------------------x----x--------|----------2---x-x-x------------------------------|
|----------------5-5----5----4---|--2----------/5-5-5---5--------5-----------4s5---|
|--0-----------------------------|--0----------------------------------------------|


                                         Verse
  N.C.  (D)                               N.C(E6)
                                          Gtr III
  W                                        W
|--------------------------------------||-------------------------------|
|--------------------------------------||-------------------------------|
|--------------------------------------||-------------------------------|
|--------------------------------------||-------------------------------|
|--------------------------------------||-------------------------------|
|--------------------------------------||-------------------------------|
|
| Gtr IV                                  Gtr II
|        ~~~~~~~
|            |---3---|
| E     +E  +E  E    E    Q   a  Q         H        S  S  E  S  S  S  S
|--------------------------------------||----------16-16----16-16-16-16S|
|--------------------------------------||-----------x--x-----x--x--x--x-|
|--------------------------------------||----------16-16-16-16-16-16-16S|
|-9b11==(9)-(9)-9---------9---9h11\----||-------------------------------|
|-------------------11-----------------||-------------------------------|
|--------------------------------------||-------------------------------|
|
| Gtr I
| E      E   E    S    S  E E a  S  E.     E E E E  E     E  E     S  S
|-----------------0----0---------------||----9---9--------9--------9--9-|
|-----------------0----0--0-0----------||-------------------------------|
|------------4----4----4-/4-4----------||-/9---9----9--------9----------|
|------------x------------x-x-0h=2-----||-------------------------------|
|-4s=====5---5-----------/5-5-------4\-||-------------------------------|
|--------------------------------------||-------------------------------|


  (D6)
     W
|--------------------------------------------------|
|--------------------------------------------------|
|--------------------------------------------------|
|--------------------------------------------------|
|--------------------------------------------------|
|--------------------------------------------------|
|
|    S  S  S  S  S  S  S  S  E    S  S  S   S  e
|---14-14-14-14----14-14-14-14---------------------|
|----x--x--x--x-----x--x--x--x---14-14-14--14-14---|
|---14-14-14-14-14-14-14-14-14---14-14-14--14-14---|
|--------------------------------------------------|
|--------------------------------------------------|
|--------------------------------------------------|
|
| a  E     S  S  E     S  S  S S  S  S  E      S S
|----------7--7--------7--7-------9--9-------------|
|----------------------0--0----------------------0-|
|-9s=7-----------7-----------7h9--------9\-----2-0-|
|--------------------------------------------------|
|--------------------------------------------------|
|--------------------------------------------------|


  E                           E7/A
                               ~~
  Q        E.      a      +S   Q    E.    S
|-------------------------------------------|
|---------15b17-----------------------------|
|-----------------15pb16r(15)-12---14----13-|
|-------------------------------------------|
|-------------------------------------------|
|-------------------------------------------|
|
| E  E     Q                   H
|-------------------------------------------|
|-------------------------------------------|
|---13\-------------------------------------|
|----x\-------------------------------------|
|-------------------------------------------|
|-------------------------------------------|
|
| E  E  a  E    S          S   E E  e  E
|----0--2s=4--------------------------------|
|----0-----x----x---------------------------|
|-------2s=4---------------0-----4--4-------|
|--------------------------------x----------|
|-2----------------------------5-5----------|
|-0------------------------------------0----|


  E                             E7/A               N.C.(E6)
                                 ~~
   S  S E    E.      a      +S   Q    S  S  E        W
|------------------------------------------------|-----------------------------------------|
|-----------15b17--------------------------------|-----------------------------------------|
|-------------------15pb16r(15)-12---14-13-------|-----------------------------------------|
|-14p12------------------------------------14\---|-----------------------------------------|
|------------------------------------------------|-----------------------------------------|
|------------------------------------------------|-----------------------------------------|
|
|  W                                                 E  S  S  E    S  S  E  S  S  E  S  S
|------------------------------------------------|-----16-16------16-16-16-16-16----16-16--|
|------------------------------------------------|------x--x-------x--x--x--x--x-----x--x--|
|------------------------------------------------|-/16-16-16-16---16-16-16-16-16-16-16-16--|
|------------------------------------------------|-----------------------------------------|
|------------------------------------------------|-----------------------------------------|
|------------------------------------------------|-----------------------------------------|
|
|  E    E a  E    S          S   E E  S  S  S  S     E  E     S S  E     E  S  S  E  S  S
|-------0-2s=4-----------------------------------|--/9--9-------9-----------9--9-----9--9--|
|-------0----x----3p=========0-------------------|---x-------------------------------x--x--|
|--1----1-2s=4---------------0p----4--4--4--4--x-|--/9--------9----9-----9--------9--9--9--|
|--2-------------------------------x--x--x--x--x-|-----------------------------------------|
|--2-----------------------------5-5--5--5--5--x-|-----------------------------------------|
|--0---------------------------------------------|-----------------------------------------|


  (D6)                                       E                         E7/A
                                                                                       ~~~
   W                                          E   E       E     E       E     E     E  E
|------------------------------------------|-----17b19---17b19-17b19---17b19-17b19-15----|
|------------------------------------------|------------------------------------------17-|
|------------------------------------------|---------------------------------------------|
|------------------------------------------|---------------------------------------------|
|------------------------------------------|---------------------------------------------|
|------------------------------------------|---------------------------------------------|
|
|  E  S  S  S  S  S  S  S  S  S  S  a  Q      Q           Q             H
|-14-14-14-14-14-14-14-14-14-14-14-14s16---|---------------------------------------------|
|--x--x--x--x--x--x--x--x--x--x--x--x--x---|---------------------------------------------|
|-14-14-14-14-14-14-14-14-14-14-14-14s16---|-16\-----------------------------------------|
|------------------------------------------|---------------------------------------------|
|------------------------------------------|---------------------------------------------|
|------------------------------------------|---------------------------------------------|
|
|  E  S  S  S  S  S  S  S  S  S  S  a  Q      e   E    a  E     S    S  E     E     E  E
|--7--7--7--------7--7-----7-----7--7s=9\--|------0----2s=4------------------------------|
|--x--------------------------------x--x---|------0-------x-----3----0--------------0----|
|--7--------7--7--------7-----7-----7s=9\--|-----------2s=4-----4----0--------4--------x-|
|------------------------------------------|----------------------------------x--------x-|
|------------------------------------------|----------------------------5-----5--------x-|
|------------------------------------------|--0------------------------------------------|


  E                          E7/A
 ~~~~~~                                      ~~~
   +E   E       E     E       S  S  S  S  e  E
|------17b19---17b19-17b19---17-15--------------|
|-(17)-----------------------------17-15--------|
|----------------------------------------16-16--|
|-----------------------------------------------|
|-----------------------------------------------|
|-----------------------------------------------|
|
|   W
|-----------------------------------------------|
|-----------------------------------------------|
|-----------------------------------------------|
|-----------------------------------------------|
|-----------------------------------------------|
|-----------------------------------------------|
|
|   E   E    a  E     S    S  E     E     E  E
|-------0----2s=4-------------------0-----------|
|-------0-------x-----0----0--------0-----------|
|------------2s=4-----0----0--------4-----4-----|
|-----------------------------------------------|
|-----------------------------5--------------5\-|
|---0-------------------------------------------|


  E                         E7/A
  E  S  S    e    S  S  e    S  S  E    S  S
|--------------------------------------------|
|-----------15---------15---------15---------|
|---14s16--------14s16------14s16------16s14-|
|--------------------------------------------|
|--------------------------------------------|
|--------------------------------------------|
|
| Q          S S  S  S  E a  E     E a  E
|--------------------------------------------|
|--------------------------------------------|
|----------------------------------4-4s=6----|
|-----------------------2-4s=6---------------|
|-----------------2h=4-----------------------|
|------------2h4-----------------------------|
|
| E  E    a  E    S  S  E    E     E    E
|----0----2s=4----3--3-----------------------|
|----0-------x----0--0--x--------------------|
|----1----2s=4----3--3--x---/4-----4----4----|
|-----------------------x----x-----x----x----|
|-2-------------------------/5-----5----5----|
|-0------------------------------------------|


  E7/D                               E             A            E
                                                                PM|
   E    S     +S   E    E    S     a  E.    E  E   Q     S  S e E E a  E   E
|----------------------12---------14s16----14-12-|-----------------------------|
|-12---14b16-(14)-12--------12----14s16----14-13-|-----------------------------|
|------------------------------------------------|------------9----------------|
|------------------------------------------------|-------9s11--------------9---|
|------------------------------------------------|--------------7-7-9s11-------|
|------------------------------------------------|-----------------------------|
|
|  E    E          E    E    Q              Q      W
|------------------------------------------------|-----------------------------|
|--7b9--7b9--------7b9--7b9--7b9\----------------|-----------------------------|
|------------------------------------------------|-----------------------------|
|------------------------------------------------|-----------------------------|
|------------------------------------------------|-----------------------------|
|------------------------------------------------|-----------------------------|
|
|  E    E          E    E    S     a  E  S  E  E   E S S S  S E E E    S S S S
|----------------------------------2s=4-----2----|-----------------------------|
|-------------------------------------x-----x----|----------------0------------|
|--4----4----------4----4----4-----2s=4-----2--2-|---2-2----------1------------|
|--x----x----------x----x----x-----------------2-|------------2---2------------|
|--5----5----------5----5----5-------------------|-0-----3h=4-----2------------|
|------------------------------------------------|--------------0------0-0-1-2-|


  G     D5      N.(Bsus4)
 2/4           4/4
                  ~~~~~~~~~~~~~~~~~~~~~~~~~~~~
  S S E +E  E   a W
|-------------|------------------------------|
|-------------|------------------------------|
|-----7-(7)---|------------------------------|
|---7-------7-|-7s9--------------------------|
|-------------|------------------------------|
|-------------|------------------------------|
|
| W               H.                 E   +E
|-------------|---0--------------------------|
|-------------|---0--------------------------|
|-------------|---2b4----------------2b4r(2)s|
|-------------|------------------------------|
|-------------|------------------------------|
|-------------|------------------------------|
|
| E   e  E  E     S    +S  E  +H.
|-------------|------------0--(0)------------|
|-------------|------------0--(0)------------|
|-----------2-|---2b4==(2)-2r-(2)------------|
|--------0----|------------------------------|
|-----2-------|------------------------------|
|-3-----------|------------------------------|


 ~~~~~~~~
  +W
|----------------------------------|
|----------------------------------|
|----------------------------------|
|-(9)------------------------------|
|----------------------------------|
|----------------------------------|
|
|  Q       +Q    +E.      S  Q
|----------------------------------|
|------------------------15--------|
|-14b16===(14)--(14)---------------|
|---------------------------14\----|
|----------------------------------|
|----------------------------------|
|
|  H              E  E       S S E
|--------------------0-------------|
|--------------------0-------------|
|--------------------2b4-----2p0---|
|--------------------------------2-|
|----------------------------------|
|----------------------------------|


  E                       A               E                        A
   Q     a  S    S  S   S H               E S  S  S     S S   S  a  E.   S a  E     E
|---------------------------------------|---------------------------------------------------|
|-------12h14p==12----------------------|---------------------------------------------------|
|------------------14p=12---------------|---------9h===11-9--11--9s=7----x-9h11-----9-------|
|---------------------------------------|---9h11--------------------------------------------|
|---------------------------------------|---------------------------------------------------|
|---------------------------------------|---------------------------------------------------|
|
|  W                                      Q       E.         +S     Q         E.        +S
|---------------------------------------|---------------------------------------------------|
|---------------------------------------|---------------------------------------------------|
|---------------------------------------|--------14b16------(14)p==12--------14b16-----(14)p|
|---------------------------------------|---------------------------------------------------|
|---------------------------------------|---------------------------------------------------|
|---------------------------------------|---------------------------------------------------|
|
|  E  E     E      +E     E S S E   E     E E     E.         +S     E  S S    E    +E
|-----0-----0------(0)------0-0---------|---0--------------------------0-0------------------|
|-----0-----0------(0)------0-0---------|---0--------------------------0-0----0----(0)------|
|-----------2b4----(2)----2-2-2-2b4-2b4-|-1-1-----2b4--------(2)----2--2-2----2b4--(2)------|
|-(2)-----------------------------------|---2-----------------------------------------------|
|---------------------------------------|---------------------------------------------------|
|--0------------------------------------|---------------------------------------------------|


  E                          A
        |----3----|
   Q    S      S  S  S    S   H
|-----------------------------------------------|
|------12h====14p12-----------------------------|
|-------------------14p==12---------------------|
|-----------------------------------------------|
|-11--------------------------------------------|
|-----------------------------------------------|
|
|  Q    E.               +S   Q      Q
|-----------------------------------------------|
|-----------------------------------------------|
|-13---14b16============(14)r14-----------------|
|-----------------------------------------------|
|-----------------------------------------------|
|-----------------------------------------------|
|
|  E E  E           +E       +E  S S S    +S  E
|----0---------------------------0-0------------|
|----0---------------------------0-0-0----------|
|--1----2b4=========(2)r=====(2)-2-2-2pb4r(2)p0-|
|-----------------------------------------------|
|-----------------------------------------------|
|-----------------------------------------------|


  N.(D)
     E.   S  S  S  S  S    S  S  S  S  S   S  E
|----------------------------------------------------|
|-----------15-------15---------15--------15---------|
|--------16----14h16------14h16----14h16-----14b16---|
|----------------------------------------------------|
|----------------------------------------------------|
|----------------------------------------------------|
|
|                          ~~~~~~~~~~~~~~~
| a  Q.            S  S    Q          +E      S    S
|----------------------------------------------------|
|--------------------------7----------(7)------------|
|-9s11s============9p=7-----------------------9----7-|
|----------------------------------------------------|
|----------------------------------------------------|
|----------------------------------------------------|
|
| a  E E     E     S  S a  S  S  S  S  E      S    S
|----------------------------------------------------|
|----------------------------------------------------|
|----------------------------------------------------|
|----------------------------------------------------|
|-4s=5-5-----5-----0--4-4s=5--5--5--5--5------0----3-|
|----------------------------------------------------|


                                                             Verse
                                                              N.C.(E6)
                                                               ~~~
     +E      E  S      E      S    E  S  S     +S  T  T  E     H.                   Q
|----------------------------------------------------------||-------------------------------|
|-----------15--------15----------15-----------------------||-------------------------------|
|---(14)-------14pb16--------14------14-14b16-(14)14p12----||-12----------------------------|
|-------------------------------------------------------14-||-------------------------------|
|----------------------------------------------------------||-------------------------------|
|----------------------------------------------------------||-------------------------------|
|
|     S  E.     E         E     a  e  E         S  S     E     Q    E.   S E    E   Q
|----------------------------------------------------------||-------------------------------|
|----------------------------------------------------------||------------x-x\---------------|
|-----9h11----------------------9h11---------------------9-||------------x-x\---------------|
|------------------------11\--------------------9h11-------||------------x-x\---------------|
|----------------------------------------------------------||-------------------------------|
|----------------------------------------------------------||-------------------------------|
|
| a   E      E  S      E      S    E  S  S      E        E     E  E E  S S S  S S S E E
|-------------------------------------0--0---------------0-||-----9----9-9-9--9-9-9-9-------|
|-------------------------------------0--0------0--------0-||----------x---x--x-x-x-x-------|
|---------------4------4------4-------4--4------4--------4-||-/9----9--9---9--9-9-9-9-9\----|
|---------------x------x------------------------x----------||-------------------------------|
|-4s==5------5--5------5-----------5------------5----------||-------------------------------|
|----------------------------------------------------------||-------------------------------|


  (D6)                                    E7                      E7/A
                                                                   ~~
  W                                       E  E      +S   E.        Q    E       +E
|---------------------------------------|---17b19r=(17)-15b15.5--------15b18---(15)--|
|---------------------------------------|-------------------------17-----------------|
|---------------------------------------|--------------------------------------------|
|---------------------------------------|--------------------------------------------|
|---------------------------------------|--------------------------------------------|
|---------------------------------------|--------------------------------------------|
|
| W                                       E  E      +S   E.        Q    E       +E
|---------------------------------------|--------------------------------------------|
|---------------------------------------|---10pb12r(10)--8b8.5----------8b11----(8)--|
|---------------------------------------|--------------------------9-----------------|
|---------------------------------------|--------------------------------------------|
|---------------------------------------|--------------------------------------------|
|---------------------------------------|--------------------------------------------|
|
| S S S S E S S   S  S  S  S  S  S  S S   E  E       E.         S  E E  S    S   S S
|---7-----7-7-7-/14-14-14-14-14-16-16-x-|----0------/3----------0--------------------|
|---------x-x-x---x--x--x--x--x--x--x-x-|----0------/3----------0--------------------|
|-7---7-7-7-7-7-/14-14-14-14-14-16-16-x-|----1------/4------------/4-4---------------|
|---------------------------------------|--------------------------x-x-----------2h4-|
|---------------------------------------|-------------------------/5-5--2h===4-------|
|---------------------------------------|-0------------------------------------------|


  E7                  E7/A
                                  ~~~
  E  E     +S   E   S  E.      S  E.     +S
|---17b19-(17)-15-----17b19---15--------------|
|--------------------------------17-----(17)\-|
|---------------------------------------------|
|---------------------------------------------|
|---------------------------------------------|
|---------------------------------------------|
|
|                                 ~~~~~~
| E  E     +S   E   S  E.      S  E  E
|---------------------------------------------|
|---10b12r(10)--8-----10b12----8--------------|
|---------------------------------9--9\-------|
|---------------------------------------------|
|---------------------------------------------|
|---------------------------------------------|
|
| E  E      S   S S S  E    S  S  E  S    S
|----0----------------------------0--0----0---|
|----0-----/3---3-3-3-------3-----0--0----0---|
|----4-----/4---4-4-4-------4-----4--4----4/--|
|----------------------0-------0--------------|
|---------------------------------------------|
|-0-------------------------------------------|


  N.C(E6)                                   (D6)
   W                                         W
|-----------------------------------------|-------------------------------------------|
|-----------------------------------------|-------------------------------------------|
|-----------------------------------------|-------------------------------------------|
|-----------------------------------------|-------------------------------------------|
|-----------------------------------------|-------------------------------------------|
|-----------------------------------------|-------------------------------------------|
|
|                                            ~~~~~~~
|  E  S  S  E  S  S  +S   S  E  E    S  S    E    E    E  E   E     S  S  E     E
|----16-16----16-16-(16)-16-16------16s14-|------14---14-14--------14-14-------16\----|
|-----x--x-----x--x-------x----------x----|------------x--x---------x--x--------x-----|
|----16-16-16-16-16-(16)-16----16---16s14-|-14--------14-14--14----14-14-14----16\----|
|-----------------------------------------|-------------------------------------------|
|-----------------------------------------|-------------------------------------------|
|-----------------------------------------|-------------------------------------------|
|
|  E  S  S  E  S  S  +S   S  E  S S  S  S    S S  S S  E  E   S  S  S  S  S  S  S  S
|-----9--9--9--9--9--(9)--9--9--9-9--9--9-|--7-7--7-7--7--7-----14----14-14-16-16-----|
|-----x--x--x--x--x-------x--x--x-x--x--x-|--x-x--x-x--x--x---------------x--x--x--x\-|
|-/9--9--9--9--9--9--(9)--9--9--9-9--9--9-|--7-7--7-7--7--7-/14----14----14-16-16--x\-|
|-----------------------------------------|-------------------------------------------|
|-----------------------------------------|-------------------------------------------|
|-----------------------------------------|-------------------------------------------|


  E7                   E7/A
     ~~~~~~~~~~~~
  E  E      +E.    +S   S  S  S  S  E    E
|----------------------------------17---16---|
|---17b19==(17)r==(17)-15----15-17-----------|
|-------------------------16-----------------|
|--------------------------------------------|
|--------------------------------------------|
|--------------------------------------------|
|
| H                     S  S  S  S  E a  E
|--------------------------------------------|
|--------------------------------------------|
|--------------------------------------------|
|-----------------------------------2-2s=4---|
|-----------------------------2--4-----------|
|-----------------------2h=4-----------------|
|
| E  E       E  S   S   E     S  S  E    E
|----0------/4----------------0--0-/7s===9\--|
|----0------/3----------------0--0-/5s===7\--|
|----1------/4--0---0---------4--4-----------|
|--------------------------------------------|
|-----------------------5--------------------|
|-0------------------------------------------|


  E7                E7/A                   E7                  E7/A
   ~~                                                 ~~~~~
   E  E  S  S  S  S  S  S  a  E    E  E     S  S   e  Q         S  S  S  S  S     S  S  S
|----------------------------------------|-------^12-----------12-------12----------------|
|-17-15-------15-------15----------------|-------^12-15b17--------12-15-12-12----12-15-12-|
|-------12s16----12s16----16s14---12-----|-12h13---------------------------14b16----------|
|------------------------------------14--|------------------------------------------------|
|----------------------------------------|------------------------------------------------|
|----------------------------------------|------------------------------------------------|
|
|  E  E  Q           S  S     S S  E  E     H                   S  S  S  S  S     S  S  S
|----------------------------------------|------------------------------------------------|
|----------------------------------------|------------------------------------------------|
|----------------------------------------|------------------------------------------------|
|----------------------------------2s=4\-|----------------------------------2-----4s=5s=6-|
|-----------------------------2h4--------|----------------------------2--4----------------|
|--0--0--------------2s=4----------------|----------------------2h=4----------------------|
|
|  E  E  E     S  S  E        E    E  E     E      e  E    S S  E     S  S  E        S  S
|-----0----------------------------7s=9--|---------0-/4---------------------0-------------|
|-----0-------------/3s=======5----x-----|---------0-/3----0-0--------------0-------------|
|-----1-/4-----4p=0-/4s=======6----7s=9--|---------1-/4----0-0--4-----4--4--4-------------|
|--------x-----x-------------------------|----------------------x-----x--x--x-------------|
|-------/5-----5-------------------------|----------------------5-----5--5--5--------4--2-|
|--0-------------------------------------|--0---------------------------------------------|


  N.C.  (D)                                           (E)
                                                       ~~~~~
   S     S  S    S     S    S  S  S     +S   T  T  E   E  E
|-------------------------------------------------------------|
|-12----12-15---------12---15p12-12----(12)-------------------|
|-14b16---------14b16------------14b16-(14)-14p12-----12------|
|-------------------------------------------------14-----14---|
|-------------------------------------------------------------|
|-------------------------------------------------------------|
|
|                              ~~~~~~~~~~~~~~
|  E        S   +S     E       E        +S   S     E   Q
|-------------------------------------------------------------|
|-------------------------------------------------------------|
|--4--------4b6-(4)----4b6-----4--------(4)p=0----------------|
|-------------------------------------------------------------|
|-------------------------------------------------------------|
|-------------------------------------------------15\---------|
|
|  S     S  S    S     E       S  S      S   E.        E  e
|-------------------------------------------------------------|
|-------------------------------------------------------------|
|--3s====4--4----3-----4-------4--3------4--------------------|
|--x--------x----x-----x-------x--x------x--------------------|
|--4s====5--5----4-----5-------5--4------5--------------------|
|--------------------------------------------0---------3--4---|


  A          E              G     D5
                           2/4
             PM|
  Q   E    e E E a  E E      E  S  S   E  E
|-------------------------|-----------------|
|-------------------------|-----------------|
|---------/9--------------|-----------------|
|---------------------9---|----------(12)---|
|------------7-7-9s11-----|-10-12s14--------|
|-------------------------|-----------------|
|
| W                          W
|-------------------------|-----------------|
|-------------------------|-----------------|
|-------------------------|-----------------|
|-------------------------|-----------------|
|-------------------------|-----------------|
|-------------------------|-----------------|
|
| E E S S  E E E a  E S S    E  e      Q
|--------------0-2s=4-----|-----------------|
|--------------0----x-x---|-----3------3----|
|---2------2---1-2s=4-x-0-|-----4------2----|
|-2-2------2--------------|-----5------0----|
|-0---3h4-----------------|-----------------|
|------------0------------|--3--------------|


  N.C. (Bsus4)
 4/4
  W                          E   S     +S   Q   E  E    +E      S  S
|-------------------------|----------------15-----14---(14)----------|
|-------------------------|------------------------------------------|
|-------------------------|-----14b16-(14)-----14--------------12h13-|
|-------------------------|------------------------------------------|
|-------------------------|------------------------------------------|
|-------------------------|------------------------------------------|
|
| H              H           H.                          Q
|-------------------------|-15---------------------------------------|
|---------------15--------|-15---------------------------------------|
|---------------14b16=====|=14r--------------------------------------|
|-------------------------|------------------------------------------|
|-------------------------|------------------------------------------|
|-------------------------|------------------------------------------|
|
| E    +E  +H.              +H                  E  S S   S S a  E
|-0----(0)-(0)------------|-(0)--------------------------------------|
|-0----(0)-(0)------------|-(0)--------------------3p0---2-----------|
|-2b4==(2)-(2)------------|-(2)-----------------2--------2p0-0h=1----|
|-------------------------|-------------------------------------2----|
|-------------------------|------------------------------------------|
|-------------------------|------------------------------------------|


  E                  A
   +E  E   Q         H
|------------------------------------|
|------------------------------------|
|-(13)-------------------------------|
|------------------------------------|
|------------------------------------|
|------------------------------------|
|
|   e  E   S  S S  S Q     S  S S  S
|------------------------------------|
|------------------------------------|
|---------------9h11------------9h11-|
|----------9-11------------9h11------|
|--11--------------------------------|
|------------------------------------|
|
|   E  E a E    S  S E S S S  S S  S
|------0-2s4----x--x-----------------|
|------0---x----x--x-----------------|
|------1-2s4----x--x---2p0-----------|
|----------------------2p0------2h=4-|
|--------------------0-----2h=4------|
|---0--------------------------------|


  E                  A                    E                   A
  Q    S    S  S   S  e E   Q             W
|---------------------------------------|---------------------------------|
|-----12h==14p12------------------------|---------------------------------|
|-----------------14p12-----------------|---------------------------------|
|---------------------------------------|---------------------------------|
|---------------------------------------|---------------------------------|
|---------------------------------------|---------------------------------|
|
| Q    S    S  S   S  Q     S    S S  S   Q   S    S  S   S   Q  E   S S
|---------------------------------------|---------------------------------|
|---------------------------------------|----------------------------x-x--|
|--------------9h=11---------------9h11-|-------------9h=11----------x-x--|
|------9h==11---------------9h==11------|-----9h==11----------------------|
|---------------------------------------|---------------------------------|
|---------------------------------------|---------------------------------|
|
| E E  E      +S   S  E S S E      S  S   E E E      +S   S a Q  E   S S
|---0-------------------0-0-------------|---0-----------------0-----------|
|---0--0--------------------------------|---0-----------------0-----------|
|---1--2b4r===(2)p=0--2-----2b4----2p=0-|---1-2b4r===(2)p=0-0h2--2b4-2p0--|
|---------------------------------------|---------------------------------|
|---------------------------------------|---------------------------------|
|-0-------------------------------------|-0-------------------------------|


  N.C.  (D)
   Q         E   E      E     E  E  E      E     E  E     E    E     E  S      +S   e
|---------------------------------------|---------------------------------------------|
|-----------15--15-----------15-15-15---|-------15-------15---------15----------------|
|-14b16----------------14b16------------|-14b16----14b16------14b16----14pb16r(14)-12-|
|---------------------------------------|---------------------------------------------|
|---------------------------------------|---------------------------------------------|
|---------------------------------------|---------------------------------------------|
|
|                             ~~~~~~~~~~~~~~~~~~~~~~~~~~~~~~~~~~~~~~~~~~~~~~~~~
|  E    a E  Q         +E     E  E  E      Q        E     E    E     E  E           e
|---------------------------------------|---------------------------------------------|
|-----------(8)--------(8)----8--8--8---|-/8--------8-----8----8-----8--8-----------8-|
|-----------------------------x--x--x---|--x--------x-----x----x-----x--x-------------|
|-------7s9-(9)--------(9)----9--9--9---|-/9--------9-----9----9-----9--9-------------|
|---------------------------------------|---------------------------------------------|
|---------------------------------------|---------------------------------------------|
|
|  E      E  E   S S a  E     E  E  S S    E     E  E     S S  E     E  E           E
|---------------------------------------|------------------------------------------^0-|
|---------------------------------------|------------------------------------------^0-|
|---------4--4---4-4----------4--4------|-/4-----4-/4-----2-0-/4-----4-/4----------^4-|
|---------x--x---x-x----------x--x------|--x-----x--x----------x-----x--x-------------|
|--5------5--5---5-5-4s=5-----5--5--x-4-|-/5-----5-/5---------/5-----5-/5-------------|
|---------------------------------------|---------------------------------------------|


  (E6)
   S  S  S  S  S  S  S  S  S  S  S  S  S  S  a  E
|-16p12----16p12----16p12----16p12----16p12-----------|
|-------12-------12-------12-------12-------12s10-----|
|-----------------------------------------------------|
|-----------------------------------------------------|
|-----------------------------------------------------|
|-----------------------------------------------------|
|
|  E     S  S  S  S  E     S  S  S  S  E        S  S
|----------16----16----------16-16----16-------16s14--|
|-----------------------------x--x-----x--------x-----|
|-------16----16----16----16-16-16-16-16-------16s14--|
|-----------------------------------------------------|
|-----------------------------------------------------|
|-----------------------------------------------------|
|
|  E     S  S  S  E     S  S  S  S  S  E        S  S
|--------9--9--9--9--------9--9-----9-----------9s=7--|
|--------x--x--x--------------------------------x-----|
|-/9-----9--9--9--------9--------9-----9--------9s=7--|
|-----------------------------------------------------|
|-----------------------------------------------------|
|-----------------------------------------------------|


  (D6)
   S  S  S  S  S  S  S  S  S  S  S  S  S  S  S   S
|-14p10----14p10----14p10----14p10----14p10--------|
|-------10-------10-------10-------10-------10s=14-|
|--------------------------------------------------|
|--------------------------------------------------|
|--------------------------------------------------|
|--------------------------------------------------|
|
|  E     S  S  E     S  S  E     S  S  S  S  S   S
|-14-------14-14----14-14-14----14-14-14-14-14s=18-|
|--x-----------x-----x--x--x-----x--x--x--x--x-----|
|-14----14----14----14-14-14----14-14-14-14-14s=18-|
|--------------------------------------------------|
|--------------------------------------------------|
|--------------------------------------------------|
|
|  E     S  S  S  S  S  S  E     S  S  E     E
|--7--------7--------7--------------7--------7/----|
|--x-----------------------------------------x-----|
|--7-----7-----7--7-----7--7-----7-----7-----7/----|
|--------------------------------------------------|
|--------------------------------------------------|
|--------------------------------------------------|


  (F#6)
   S  S  S  S  S  S  S  S  S  S  S  S  S  S  S   S
|-18p14----18p14----18p14----18p14----18p14---------|
|-------14-------14-------14-------14-------14h=15--|
|---------------------------------------------------|
|---------------------------------------------------|
|---------------------------------------------------|
|---------------------------------------------------|
|
|  E     S  S  E     S  S  E     S  S  E     S   S
|-18-------18-------18-18-18----18-18-18------------|
|--x-----------------x--x--x-----x--x--x------------|
|-18----18----18----18-18-18----18-18-18----18s=19--|
|---------------------------------------------------|
|---------------------------------------------------|
|---------------------------------------------------|
|
|  E     S  S  S  S  S  S  S  E     S  S  S  E
|-11-------11-------11-------11-------11-11-11/-----|
|--x-----------------------------------x--x--x------|
|-11----11----11-11----11-11-------11-11-11-11/-----|
|---------------------------------------------------|
|---------------------------------------------------|
|---------------------------------------------------|


  (G6)                       (A6)
   S  S  S  S  S  S  S  S     S  S  S  S  E   E
|-19p15----19p15----19p15-------19p15----19\----||
|-------15-------15----------15-------15-----10-||
|-----------------------------------------------||
|-----------------------------------------------||
|-----------------------------------------------||
|-----------------------------------------------||
|
|  E     S  S  E     S  S     E     E     E   E
|-19-------19-19----19-19----19----19----19\----||
|--x-----------x-----x--x-----x-----x-----x-----||
|-19----19----19----19-19----19----19-----------||
|-----------------------------------------------||
|-----------------------------------------------||
|-----------------------------------------------||
|
|  E     S  S  S  S  E     a  E     S  S  Q
|-12-------12-------12----12s14----14-14-14\----||
|--x-----------------x--------x-----x--x--x-----||
|-12----12----12-12-12----12s14----14-14-14\----||
|-----------------------------------------------||
|-----------------------------------------------||
|-----------------------------------------------||


 Guitar Solo
  N.C(E7)
            ~~~~~~~
   E  S  S  E    E  E  e  S     +T   T  E
|-12--------------------------------------|
|----14p12--------------------------------|
|------------------12-12-14b16r(14)p12----|
|----------14---14---------------------14-|
|-----------------------------------------|
|-----------------------------------------|
|
|  E  S  S  S S  e  E  E  S      S      E
|-----------------------------------------|
|-----------------------------------------|
|-----------7-7-----7--7--9------7--------|
|-----7s=9-------9----------------------9-|
|--7--------------------------------------|
|-----------------------------------------|
|
|  E  S  S  S S  e  e  e  S      S      E
|-----------------------------------------|
|-----------------------------------------|
|-----------------------------------------|
|-----------------------------------------|
|-----------5-5-----5--7--7------5--------|
|--0--5s=7-------7----------------------7-|


   ~~
   Q      E    +E   E  S  S  e    E
|-----------------------------------|
|-----------------------------------|
|-12------------------------12---14-|
|--------14---(14)\---14-14---------|
|-----------------------------------|
|-----------------------------------|
|
|  E S S  S S   e   E  E     S S  E
|-----------------------------------|
|-----------------------------------|
|---------7-7-------7--7-----9-7----|
|----7s9--------9-----------------9-|
|--7--------------------------------|
|-----------------------------------|
|
|  E S S  S S   e   e  e     S S  E
|-----------------------------------|
|-----------------------------------|
|-----------------------------------|
|-----------------------------------|
|---------5-5-------5--5-----7-5----|
|--0-5s7--------7-----------------7-|


                                                   |----3----|
   S     S  S     S  S  S  e  S      +E     S      S  +S     S  E
|-----------------------------------------------------------------|
|-------12-------12-----------------------------------------------|
|-14b16----14b16----14-12----14b16==(14)---14pb16-14r(14)p==12----|
|-------------------------14-----------------------------------14-|
|-----------------------------------------------------------------|
|-----------------------------------------------------------------|
|
|  E        S     S  S  S  e  E          E         S      S     E
|-----------------------------------------------------------------|
|-----------------------------------------------------------------|
|--------------------7--7-----7----------7---------9------7-------|
|-----------7s====9--------9------------------------------------9-|
|--7--------------------------------------------------------------|
|-----------------------------------------------------------------|
|
|  E        S     S  S  S  e  e          e         S      S     E
|-----------------------------------------------------------------|
|-----------------------------------------------------------------|
|-----------------------------------------------------------------|
|-----------------------------------------------------------------|
|--------------------5--5-----5----------5---------7------5-------|
|--0--------5s====7--------7------------------------------------7-|


   ~~                                               ~~~~
   Q     E   E   e  s  S  E    E    Q              +Q      E  Q         +E
|--------------^12---------------|-14b16==========(14)-------14b16r====(14)---|
|--------------^12-15-12-14---12-|--------------------------------------------|
|-12-----x-----^13---------------|--------------------------------------------|
|--------x-----------------------|--------------------------------------------|
|--------------------------------|--------------------------------------------|
|--------------------------------|--------------------------------------------|
|
|  E S S S S e   E  E     S S  E    S     S a E     S  S E E  E    S S   S  S
|--------------------------------|--------------------------------------------|
|--------------------------------|--------------------------------------------|
|--------7-7-----7--7-----9-7----|------------------7--7---7--7----9-7--------|
|----7s9-----9-----------------9-|--------x-7h9----------9---------------9--x-|
|--7-----------------------------|--7-----------------------------------------|
|--------------------------------|--------------------------------------------|
|
|  E S S S S e   e  e     S S  E    E         S S   S  S E E  E    S S   S  S
|--------------------------------|--------------------------------------------|
|--------------------------------|--------------------------------------------|
|--------------------------------|--------------------------------------------|
|--------------------------------|--------------------------------------------|
|--------5-5-----5--5-----7-5----|------------------5--5---5--5----7-5--------|
|--0-5s7-----7-----------------7-|--0---------5s7--------7---------------7--x-|


  (A/E)
   ~~
   Q      E    E  E     S  S  E     e
|-14-----12---------------12------^12-|
|-------------15-------12----12---^12-|
|----------------14b16----------------|
|-------------------------------------|
|-------------------------------------|
|-------------------------------------|
|
|  S S E  S S  E  E     E     S S   E
|-------------------------------------|
|-------------------------------------|
|---------6-6-----6-----6-----7-6-----|
|----7-7-------7--------------------7-|
|--7----------------------------------|
|-------------------------------------|
|
|  S S E  S S  E  E     E     S S   E
|-------------------------------------|
|-------------------------------------|
|-------------------------------------|
|-------------------------------------|
|---------4-4-----4-----4-----5-4-----|
|--0-x-5-------5--------------------5-|


  (E7)
   ~~~~~
   H                 E     +E      E       +E
|-14b16-------------15b16-(15)b17-15b16---(15)---|
|------------------------------------------------|
|------------------------------------------------|
|------------------------------------------------|
|------------------------------------------------|
|------------------------------------------------|
|
|  S    S S S S S E  E      E      S    S   S  S
|------------------------------------------------|
|------------------------------------------------|
|-------------7-7----7------7------9----7--------|
|-------x-7h9-----9-------------------------9--7-|
|--7---------------------------------------------|
|------------------------------------------------|
|
|  E      S S S S E  E      E      S    S   S  S
|------------------------------------------------|
|------------------------------------------------|
|------------------------------------------------|
|------------------------------------------------|
|-------------5-5----5------5------7----5--------|
|--0------5h7-----7-------------------------7--5-|


  (A/E)
           ~~~~
   E      +E   E    S  S  S  S  S  S  E       S  S
|-12-----(12)-12---12-12---------------------------|
|------------------------12-15-12------------------|
|---------------------------------14-14b16---14p12-|
|--------------------------------------------------|
|--------------------------------------------------|
|--------------------------------------------------|
|
|  S S a   E   S S  E     E     E     S    S  S  S
|--------------------------------------------------|
|--------------7-7--------7-----7-----8----7-------|
|------7h==9--------9-------------------------9--9-|
|--7-x---------------------------------------------|
|--------------------------------------------------|
|--------------------------------------------------|
|
|  S S     E   S S  E     E     E     S    S  E
|--------------------------------------------------|
|--------------------------------------------------|
|--------------------------------------------------|
|--------------------------------------------------|
|--------------4-4--------4-----4-----5----4-------|
|--5p0S====5--------5-------------------------5----|


  (E7)
  S  S        S  S  S  +S   E S  S      +E   S  +S   e
|--------------------------------------------------------|
|---12-------12-12-12-(12)----x-12-----(12)-12-(12)------|
|---14b16====14-14-14r(14)-12-x-14b16==(14)-14r(14)-12---|
|--------------------------------------------------------|
|--------------------------------------------------------|
|--------------------------------------------------------|
|
| PM
| E        a  E     S   S   E E          E   S   S   S S
|--------------------------------------------------------|
|--------------------------------------------------------|
|-------------------7---7-----7----------7---9---7-------|
|----------7s=9-------------9------------------------9-7-|
|-7------------------------------------------------------|
|--------------------------------------------------------|
|
| E           S  S  S   S   E E          E   S   S   S S
|--------------------------------------------------------|
|--------------------------------------------------------|
|--------------------------------------------------------|
|--------------------------------------------------------|
|-------------------5---5-----5----------5---7---5-------|
|-0-----------5s=7----------7------------------------7-5-|


  (A/E)
  S  S        S  S  S  +S   S   S   S     S  S  S      S  S  S S
|-----------------------------------------------------------------|
|-x-12-------12-12-12-(12)-----12--12----12----12--------12-------|
|-x-14b16====14-14-14r(14)-14-(12)-14b16----14-14pb16-14-13----x--|
|-----------------------------------------------------------14----|
|-----------------------------------------------------------------|
|-----------------------------------------------------------------|
|
| PM
| S  S     a  E     S   S   E       E        E         S  S  S S
|-----------------------------------------------------------------|
|-----------------------------------------------------------------|
|-------------------6---6-----------6--------6---------7--6-------|
|----x-----6s=7-------------7--------------------------------7-x--|
|-7---------------------------------------------------------------|
|-----------------------------------------------------------------|
|
| e           E     S   S   S   S   E        E         S  S  S S
|-----------------------------------------------------------------|
|-----------------------------------------------------------------|
|-----------------------------------------------------------------|
|-----------------------------------------------------------------|
|-------------------4---4-----------4--------4---------5--4-------|
|-0----------/5-------------5---x----------------------------5-x--|


  (E7)
  S  S        +S   S  S  S   S  S S  S      +S   S  E      S  +S
|-----------------------------------------------------------------|
|---12-------(12)-12-12-12--------x-12-----(12)-12-12-------------|
|---14b16====(14)----14-14r-14p12-x-14b16==(14)-14-14-----14r(14)-|
|-----------------------------------------------------------------|
|-----------------------------------------------------------------|
|-----------------------------------------------------------------|
|
| PM|
| S  S     a   E      S  S   E    E          E      S S    S   S
|-----------------------------------------------------------------|
|-----------------------------------------------------------------|
|---------------------7--7--------7----------7------9-7-----------|
|----------7s==9-------------9-----------------------------9---8--|
|-7--7------------------------------------------------------------|
|-----------------------------------------------------------------|
|
| E        a   E      S  S   E    E          E      S S a  S   S
|-----------------------------------------------------------------|
|-----------------------------------------------------------------|
|-----------------------------------------------------------------|
|-----------------------------------------------------------------|
|---------------------5--5--------5----------5------7-5-7s=9s==5--|
|-0--------5s==7-------------7------------------------------------|


  (A/E)
   S  S         +S   S  E         S  S  S       S  S       S  E    a  S  S
|---------------------------------------------------------------------------|
|-------------------12-12-----------12---------12------------------------x--|
|-12-14b16=====(14)----14r-------14----14--------------------12------12--x--|
|-------------------------------------------------14------14-------x--------|
|---------------------------------------------------------------------------|
|---------------------------------------------------------------------------|
|
|  ~~
|  E         a   E      E         E     E          E          S  S    S  S
|---------------------------------------------------------------------------|
|---------------------------------------------------------------------------|
|----------------------12b12.5---------12b12.5----12b12.5----14-12----------|
|--7--------12s=14---------------14----------------------------------14-12--|
|---------------------------------------------------------------------------|
|---------------------------------------------------------------------------|
|
|  E             E      S      S  E     E          E          S  S    S  S
|---------------------------------------------------------------------------|
|---------------------------------------------------------------------------|
|---------------------------------------------------------------------------|
|---------------------------------------------------------------------------|
|-----------------------4------4--------4----------4----------5--4-------5--|
|--0-------------5----------------5-----------------------------------5-----|


  (E)
   S     S     S  S  S     S  S  S     S  S  a      +S   S  S     S  S  S
|-------------------------------------------------------------------------|
|--x----------12-12-------12-12-12----12-12----------------------12-12-12-|
|--x----14b16-------14b15-------14b16-------14pb16r(14)p12-14b16----------|
|-------------------------------------------------------------------------|
|-------------------------------------------------------------------------|
|-------------------------------------------------------------------------|
|
|  S  a  S     S  S  E        S  S     S  S          S   S  E        S  S
|-------------------------------------------------------------------------|
|-------------------------------------------------------------------------|
|-------------------------------------------------------------------------|
|----12h14----12----12-------14-12-------14---------12-----12-------14-12-|
|----------------14-------------------14----------------14----------------|
|-12----------------------------------------------------------------------|
|
|  PM                                  PM
|  s  a  S     S  S  E        S  S     S  S          S   S  E        S  S
|-------------------------------------------------------------------------|
|-------------------------------------------------------------------------|
|-------------------------------------------------------------------------|
|-------------------------------------------------------------------------|
|-----5h=7-----5-----5--------7--5--------7----------5------5--------7--5-|
|--0--------------7--------------------0-----------------7----------------|


  (A)
   +S      S  S     S  S     S  S  S     S  S  S   S   S   S   S   s
|------------------12-------12-12-------12-12----(12)----------------|
|-(12)----15-15b17----15b17----12-15b17----15-12---------(12)-----12-|
|-------------------------------------------------15--14p=12------12-|
|-------------------------------------------------------------14-----|
|--------------------------------------------------------------------|
|--------------------------------------------------------------------|
|
|   S   a  S  S     S  E        S  S     s  E      S   E       S   S
|--------------------------------------------------------------------|
|--------------------------------------------------------------------|
|------12h14-12-------12-------14-12----14-14-----14--12-------------|
|------------------14-----------------------------------------14p=12-|
|--12----------------------------------------------------------------|
|--------------------------------------------------------------------|
|
|   PM                                   PM
|   S   a  S  S     S  E        S  S     S  E      S   E       E
|--------------------------------------------------------------------|
|--------------------------------------------------------------------|
|--------------------------------------------------------------------|
|-------5h=7--5--------5--------7--5--------7------7---5-------------|
|-------------------7------------------------------------------7\----|
|---5------------------------------------5---------------------------|


  (E)
   S     S     S  S  S     S  S  S     S  S  S  S     S  S  S  S
|----------------------------------------15-12-------------12-12-|
|-------12----12-12-------12-12-12----12-15-12-12----12-12-12-12-|
|-------14b16-------14b16-------14b16----------14b16-------------|
|----------------------------------------------------------------|
|---------------------------------------------------
I want to post or [tab]
guest
You may want to rate the tab now too:
select rating
Please do not post tabs as comments. Select "correction" instead!