Oops, an error
Loading. Please wait.

Power To Love Bass Tab

ver1
ver1

Whole song

Interactive

More versions @911Tabs.com
5,265 views 9 this week
no commentswrite comment
1 2 3 4 5
excellent!
x 1
Autoscroll
+/-
esc
set tempo
stop
WARNING: You are trying to view
                                    content from Ultimate-Guitar.com
                                    in an unauthorized application,
                                    which is prohibited.

                                    Please use an official Ultimate
                                    Guitar Tabs application for iPhone,
                                    iPad or Android to access legitimate
                                    chords, guitar, bass, and drum tabs
                                    from Ultimate-Guitar.com database.

                                    Type "ultimate guitar tabs" in Apple
                                    App Store's or Android Market's
                                    search to find the application.
Band/Artist: Jimi Hendrix (Band Of Gypsys)
Song: Power To Love


      E  Q.     S S Q    E     E  Q.     S S Q    E     E  Q.     S S Q    E   
F#||------------------------|------------------------|------------------------|
C#||------------9-9---------|------------9-9---------|------------9-9---------|
G#||------------------------|------------------------|------------------------|
D#||--7---------------------|--7---------------------|--7---------------------|


  E  Q.     S S Q    E     Q    E  E  S S  S S Q       Q    Q    S S  S S  
------------------------|---------------------------|---------------------|
------------9-9---------|---------------------------|---------------------|
------------------------|-------------9-7-----------|------------9-7------|
--7---------------------|-----------------10-7------|----------------10-8-|


  H        Q    S S  S S    S S S S S S S S S S E  S S  S S  
-------------------------|----------------------------------|
-----------------------7-|--9-9-7---7-7---7-9-9-7---------7-|
------------------7h-9---|--------9-----9------------7h-9---|
--L--------L-------------|----------------------------------|


  S S S S S S S S S S E  S S  S S    S S S S S S S S S S E  S S  S S  
----------------------------------|----------------------------------|
--9-9-7---7-7---7-9-9-7---------7-|--9-9-7---7-7---7-9-9-7---------7-|
--------9-----9------------7h-9---|--------9-----9------------7h-9---|
----------------------------------|----------------------------------|


  S S S S S S S S S S E  S S  S S    E  S S E  S S E  E  S S  S S  
----------------------------------|-------------------------------|
--9-9-7---7-7---7-9-9-7-----------|-------------------2-----------|
--------9-----9-----------------2-|--4--2---2-------------------2-|
---------------------------2h-4---|-------4----4-2-x-------2h-4---|


  E  S S E  S S E  E  S S  S S    S S S S S S S S S S E  S S  S S  
-------------------------------|--7-7-6-4-6-6-4---7-4-------------|
-------------------2---------4-|----------------7-----7---------4-|
--4--2---2--------------4h-6---|---------------------------4h-6---|
-------4----4-2-x--------------|----------------------------------|


  S S S S S S S S S S E  S S S S    S S S S S S S S S S E  S S S S  
--7-7-6-4-6-6-4---7-4------------|----------4----------------------|
----------------7-----7----------|----5---5---5---------7----------|
---------------------------5-7-7-|--7---7-------7-5----------5-7-7-|
---------------------------------|------------------8-5------------|


  S S S S S S S S S S E  S S S S    S S S S S S S S S S E  S S S S  
--------4------------------------|--------4------------------------|
--5---5---5-----------7----------|--5---5---5-----------7----------|
----7-------7-6-5----------5-7-7-|----7-------7-6-5----------5-7-7-|
------------------8-5------------|------------------8-5------------|


  S S S S S S S S S S E  S S S S    S S S S S S S S S S E  S S S S  
--------4------------------------|--------4------------------------|
--5---5---5-----------7----------|--5---5---5-----------7----------|
----7-------7-6-5----------5-7-7-|----7-------7-6-5----------5-7-7-|
------------------8-5------------|------------------8-5------------|


  S S S S S S S S S S E  S S S S    S S S S S S S S S S E  S S S S  
--------4------------------------|--------4------------------------|
--5---5---5-----------7----------|--5---5---5-----------7----------|
----7-------7-6-5----------5-7-7-|----7-------7-6-5----------5-7-7-|
------------------8-5------------|------------------8-5------------|


  S S S S S S S S S S E  S S S S    S S S S S S S S S S E  S S S S  
--------4------------------------|--------4------------------------|
--5---5---5-----------7----------|--5---5---5-----------7----------|
----7-------7-6-5----------5-7-7-|----7-------7-6-5----------5-7-7-|
------------------8-5------------|------------------8-5------------|


  S S S S S S S S S S E  S S S S    S S S S S S S S S S E  S S S S  
--------4------------------------|--------4------------------------|
--5---5---5-----------7----------|--5---5---5-----------7----------|
----7-------7-6-5----------5-7-7-|----7-------7-6-5----------5-7-7-|
------------------8-5------------|------------------8-5------------|


  S S S S S S S S S S E  S S S S    S S S S S S S S S S E  S S S S  
--------4------------------------|--------4------------------------|
--5---5---5-----------7----------|--5---5---5-----------7----------|
----7-------7-6-5----------5-7-7-|----7-------7-6-5----------5-7-7-|
------------------8-5------------|------------------8-5------------|


  S S S S S S S S S S E  S S S S    S S S S S S S S S S E  Q             
--------4------------------------|--------4---------------------|-------|
--5---5---5-----------7----------|--5---5---5-----------7-------|-------|
----7-------7-6-5----------5-7-7-|----7-------7-6-5-------------|-------|
------------------8-5------------|------------------8-5---------|-------|


          E  S S E  S S E  E   E  S S S S    E  S S E  S S E  E  E   
-------|----------------------------------|-------------------------|
-------|--9--7------------------------7---|--9--7-------------------|
-------|-------9-5--7-5-------------9---9-|-------9-5--7-5----------|
-------|----------------7--7\-------------|----------------7--7-----|


  Q    E   E  E  Q    S S    Q    E  E  E  Q    S S    E  Q    E  E  Q    S S  
--------------------------|-------------------------|-------------------------|
--------------------------|--9----------------------|-------------------------|
----------------------7-9-|-------7--9--------------|-------------------------|
--7----7--10--7--7--------|-------------7--7----5-7-|--7--7----5--7--7----5-7-|


  E  Q    E  E  E  E  E     E  S S E  S S E  E  S S S S  
-------------------------|------------------------------|
-------------------------|--9--7--------------------7---|
-------------------9--9--|-------9-5--7-5---------9---9-|
--7--7----5--7--7--------|----------------7--7--L-------|


  E  S S E  S S E  E  S S S S    Q    E   E  E  Q    S S  
------------------------------|--------------------------|
--9--7--------------------7---|--------------------------|
-------9-5--7-5---------9---9-|----------------------7-9-|
----------------7--7--L-------|--7----7--10--7--7--------|


  Q    E  E  E  Q    S S    E  S S  E  S S E  E  S S S S  
-------------------------|-------------------------------|
--9----------------------|--9--7---------------------7---|
-------7--9--------------|-------9S-5--7-5---------9---9-|
-------------7--7----5-7-|-----------------7--7--L-------|


  E  S S  E  S S S S S S S S S S    E  E  S S S E  E  S S S S S  
---------------------------------|------------------------------|
--9--7---------------------------|------------7-9--9--7-9-9-----|
-------9S-5--7-5---6---7---8---9-|--7--7--7-9---------------9-7-|
-----------------7---------------|------------------------------|


  E  E  S S S S  S  S  S  S S S S S    E  Q    E  E  Q    E   
------------------------------------|------------------------|
------------------------------------|------------------------|
----------------------------7-7-9-9-|--7--7----5--7--7----7--|
--7--7--7-7-7-7-10-10-10-10---------|------------------------|


  S S S S S S S S S  S  S  S  S  S  E     E  S S E  S S E  E   E  S S S S  
---------------------------------------|----------------------------------|
---------------------------------------|--9--7------------------------7---|
--7-7-7-8-8-8-9-9-9-10-10-10-11-11-12--|-------9-5--7-5-------------9---9-|
---------------------------------------|----------------7--7\-------------|


  E  S S E  S S E  E  S S    E  S S E  S S E  E   E  S S S S  
--------------------------|----------------------------------|
--9--7----------------7---|--9--7------------------------7---|
-------9-5--7-5---------9-|-------9-5--7-5-------------9---9-|
----------------7--7------|----------------7--7\-------------|


  E  S S E  S S E  E  E     E  E  E  E  Q    E  E     Q    E  E  Q    E  E   
-------------------------|-------------------------|------------------------|
--9--7-------------------|-------------------------|------------------------|
-------9-5--7-5----------|-------------------------|------------------------|
----------------7--7-----|--7--7--5--7--7----5--7--|--7----5--7--7----5--7--|


  E  E  E  E  Q    E  E     Q    E  E  Q    S S S S  
-------------------------|--------------------------|
-------------------------|--------------------------|
-------------------------|------------------------2-|
--7--7--5--7--7----5--7--|--7----5--7--7------2-4---|


  E  S S E  S S E  E  S S  S S    E  S S E  S S E  E  S S  S S  
-------------------------------|-------------------------------|
-------------------2-----------|-------------------2---------4-|
--4--2---2-------------------2-|--4--2---2--------------4h-6---|
-------4----4-2-x-------2h-4---|-------4----4-2-x--------------|


  S S S S S S S S S S E  S S  S S    S S S S S S S S S S E  S S S S  
--7-7-6-4-6-6-4---7-4-------------|--7-7-6-4-6-6-4---7-4------------|
----------------7-----7---------4-|----------------7-----7----------|
---------------------------4h-6---|---------------------------5-7-7-|
----------------------------------|---------------------------------|


  S S S S S S S S S S E  S S S S    S S S S S S S S S S E  S S S S  
--------4------------------------|--------4------------------------|
--5---5---5-----------7----------|--5---5---5-----------7----------|
----7-------7-6-5----------5-7-7-|----7-------7-6-5----------5-7-7-|
------------------8-5------------|------------------8-5------------|


  S S S S S S S S S S E  S S S S    S S S S S S S S S S E  S S S S  
--------4------------------------|--------4------------------------|
--5---5---5-----------7----------|--5---5---5-----------7----------|
----7-------7-6-5----------5-7-7-|----7-------7-6-5----------5-7-7-|
------------------8-5------------|------------------8-5------------|


  S S S S S S S S S S E  S S S S    S S S S S S S S S S E  S S S S  
--------4------------------------|--------4------------------------|
--5---5---5-----------7----------|--5---5---5-----------7----------|
----7-------7-6-5----------5-7-7-|----7-------7-6-5----------5-7-7-|
------------------8-5------------|------------------8-5------------|


  S S S S S S S S S S E  S S S S    S S S S S S S S S S E  S S S S  
--------4------------------------|--------4------------------------|
--5---5---5-----------7----------|--5---5---5-----------7----------|
----7-------7-6-5----------5-7-7-|----7-------7-6-5----------5-7-7-|
------------------8-5------------|------------------8-5------------|


  S S S S S S S S S S E  S S S S    S S S S S S S S S S E  S S S S  
--------4------------------------|--------4------------------------|
--5---5---5-----------7----------|--5---5---5-----------7----------|
----7-------7-6-5----------5-7-7-|----7-------7-6-5----------5-7-7-|
------------------8-5------------|------------------8-5------------|


  S S S S S S S S S S E  S S S S    S S S S S S S S S S E  S S S S  
--------4------------------------|--------4------------------------|
--5---5---5-----------7----------|--5---5---5-----------7----------|
----7-------7-6-5----------5-7-7-|----7-------7-6-5----------5-7-7-|
------------------8-5------------|------------------8-5------------|


  S S S S S S S S S S E  S S S S    S S S S S S S S S S E  S S S S  
--------4------------------------|--------4------------------------|
--5---5---5-----------7----------|--5---5---5-----------7----------|
----7-------7-6-5----------5-7-7-|----7-------7-6-5----------5-7-7-|
------------------8-5------------|------------------8-5------------|


  S S S S S S S S S S E  S S S S    S S S S S S S S S S E  S S S S  
--------4------------------------|--------4------------------------|
--5---5---5-----------7----------|--5---5---5-----------7----------|
----7-------7-6-5----------5-7-7-|----7-------7-6-5----------5-7-7-|
------------------8-5------------|------------------8-5------------|


  S S S S S S S S S S E  S S S S    S S S S S S S S S S E  S S S S  
--------4------------------------|--------4------------------------|
--5---5---5-----------7----------|--5---5---5-----------7----------|
----7-------7-6-5----------5-7-7-|----7-------7-6-5----------5-7-7-|
------------------8-5------------|------------------8-5------------|


  S S S S S S S S S S E  S S S S    S S S S S S S S S S E  S S S S  
--------4------------------------|--------4------------------------|
--5---5---5-----------7----------|--5---5---5-----------7----------|
----7-------7-6-5----------5-7-7-|----7-------7-6-5----------5-7-7-|
------------------8-5------------|------------------8-5------------|


  S S S S S S S S S S E  S S S S    S S S S S S S S S S E  S S S S  
--------4------------------------|--------4------------------------|
--5---5---5-----------7----------|--5---5---5-----------7----------|
----7-------7-6-5----------5-7-7-|----7-------7-6-5----------5-7-7-|
------------------8-5------------|------------------8-5------------|


  S S S S S S S S S S E  S S S S    S S S S S S S S S S E  S S S S  
--------4------------------------|--------4------------------------|
--5---5---5-----------7----------|--5---5---5-----------7----------|
----7-------7-6-5----------5-7-7-|----7-------7-6-5----------5-7-7-|
------------------8-5------------|------------------8-5------------|


  S S S S S S S S S S E  S S S S    S S S S S S S S S S E  S S S S  
--------4------------------------|--------4------------------------|
--5---5---5-----------7----------|--5---5---5-----------7----------|
----7-------7-6-5----------5-7-7-|----7-------7-6-5----------5-7-7-|
------------------8-5------------|------------------8-5------------|


  S S S S S S S S S S E  S S S S    S S S S S S S S S S E  S S S S  
--------4------------------------|--------4------------------------|
--5---5---5-----------7----------|--5---5---5-----------7----------|
----7-------7-6-5----------5-7-7-|----7-------7-6-5----------5-7-7-|
------------------8-5------------|------------------8-5------------|


  S S S S S S S S S S E  S S S S    S S S S S S S S S S E  S S S S  
--------4------------------------|--------4------------------------|
--5---5---5-----------7----------|--5---5---5-----------7----------|
----7-------7-6-5----------5-7-7-|----7-------7-6-5----------5-7-7-|
------------------8-5------------|------------------8-5------------|


  S S S S S S S S S S E  S S S S    S S S S S S S S S S E  S S S S  
--------4------------------------|--------4------------------------|
--5---5---5-----------7----------|--5---5---5-----------7----------|
----7-------7-6-5----------5-7-7-|----7-------7-6-5----------5-7-7-|
------------------8-5------------|------------------8-5------------|


  S S S S S S S S S S E  S S S S    S S S S S S S S S S E  S S S S  
--------4------------------------|--------4------------------------|
--5---5---5-----------7----------|--5---5---5-----------7----------|
----7-------7-6-5----------5-7-7-|----7-------7-6-5----------5-7-7-|
------------------8-5------------|------------------8-5------------|


  S S S S S S S S S S E  S S S S    S S S S S S S S S S E  S S S S  
--------4------------------------|--------4------------------------|
--5---5---5-----------7----------|--5---5---5-----------7----------|
----7-------7-6-5----------5-7-7-|----7-------7-6-5----------5-7-7-|
------------------8-5------------|------------------8-5------------|


  S S S S S S S S S S E  S S S S    S S S S S S S S S S E  S S S S  
--------4------------------------|--------4------------------------|
--5---5---5-----------7----------|--5---5---5-----------7----------|
----7-------7-6-5----------5-7-7-|----7-------7-6-5----------5-7-7-|
------------------8-5------------|------------------8-5------------|


  S S S S S S S S S S E  S S S S    S S S S S S S S S S E  S S S S  
--------4------------------------|--------4------------------------|
--5---5---5-----------7----------|--5---5---5-----------7----------|
----7-------7-6-5----------5-7-7-|----7-------7-6-5----------5-7-7-|
------------------8-5------------|------------------8-5------------|


  S S S S S S S S S S E  S S S S    S S S S S S S S S S E  S S S S  
--------4------------------------|--------4------------------------|
--5---5---5-----------7----------|--5---5---5-----------7----------|
----7-------7-6-5----------5-7-7-|----7-------7-6-5----------5-7-7-|
------------------8-5------------|------------------8-5------------|


  S S S S S S S S S S E  S S S S    S S S S S S S S S S E  S S S S  
--------4------------------------|--------4------------------------|
--5---5---5-----------7----------|--5---5---5-----------7----------|
----7-------7-6-5----------5-7-7-|----7-------7-6-5----------5-7-7-|
------------------8-5------------|------------------8-5------------|


  S S S S S S S S S S E  S S S S    S S S S S S S S S S E  S S S S  
--------4------------------------|--------4------------------------|
--5---5---5-----------7----------|--5---5---5-----------7----------|
----7-------7-6-5----------5-7-7-|----7-------7-6-5----------5-7-7-|
------------------8-5------------|------------------8-5------------|


  S S Q    E  Q    S S S S    S S S S S S S S S S S S S S S S  
---------------------------|----------------------------------|
--7-7----------------7-7-7-|--7-7-7-7-7-7-7-7-7-7-7-7-7-7-7-7-|
-----------7--7------------|----------------------------------|
---------------------------|----------------------------------|


  S S S S S S S S S S S S S S S S    S S S S S S S S S S S S S S S S  
----------------------------------|----------------------------------|
--5-7-7-7-7-7-7-7-5-5-7-7-7-7-7-7-|--5-7-7-7-7-7-7-7-5-7-7-7-7-7-7-7-|
----------------------------------|----------------------------------|
----------------------------------|----------------------------------|


  S S S S Q    Q    S S S S    Q    Q    Q    S S S S  
----------------------------|-------------------------|
--5-7-7---------------------|-------------------------|
--------------------5-7-7-7-|-----------------5-7-7-7-|
----------------------------|-------------------------|


  Q    Q    Q    S S S S    Q    Q    Q    S S S S  
-------------------------|-------------------------|
-------------------------|-------------------------|
-----------------5-7-7-7-|-------------------5-7-7-|
-------------------------|-------------------------|


  S S S S S S S S S S S  S S S S S    S S S  S S S S S  S S E  S S S S  
-----------------------------------|-----------------------------------|
--5---5-9-6---6---6---6-10-6-------|--7---7-11-7------------9----------|
----7-------8---8---8--------9-9-9-|----9--------9-8-7-----------7-9-9-|
-----------------------------------|-------------------10-7------------|


  E  S S E  S S E  E   E  S S S S    E  S S E  S S E  E  S S  
----------------------------------|--------------------------|
--9--7------------------------7---|--9--7----------------7---|
-------9-5--7-5-------------9---9-|-------9-5--7-5---------9-|
----------------7--7\-------------|----------------7--7------|


  E  S S E  S S E  E   E  S S S S    E  S S E  S S E  E  S S  
----------------------------------|--------------------------|
--9--7------------------------7---|--9--7----------------7---|
-------9-5--7-5-------------9---9-|-------9-5--7-5---------9-|
----------------7--7\-------------|----------------7--7------|


  E  E  E  E  E  Q    S S    E  Q    E  E  Q    S S    E  Q    E  E  Q    S S  
--------------------------|-------------------------|-------------------------|
--9--9--------------------|-------------------------|-------------------------|
-----------9--------------|-------------------------|-------------------------|
--------7-----7--7----5-7-|--7--7----5--7--7----5-7-|--7--7----5--7--7----5-7-|


  E  Q    E  E  Q    S S    E  Q    E  E  Q    S S    E  Q    E  E  Q    S S  
-------------------------|-------------------------|-------------------------|
-------------------------|-------------------------|-------------------------|
-------------------------|-------------------------|-------------------------|
--7--7----5--7--7----5-7-|--7--7----5--7--7----5-7-|--7--7----5--7--7----5-7-|


  E  Q    E  E  Q    S S    E  Q    E  E  Q    S S    E  Q    E  E  Q    S S  
-------------------------|-------------------------|-------------------------|
-------------------------|-------------------------|-------------------------|
-------------------------|-------------------------|-------------------------|
--7--7----5--7--7----5-7-|--7--7----5--7--7----5-7-|--7--7----5--7--7----5-7-|


  E  Q    E  E  Q    S S    E  Q    E  E  Q    S S    E  Q    E  E  Q    S S  
-------------------------|-------------------------|-------------------------|
-------------------------|-------------------------|-------------------------|
-------------------------|-------------------------|-------------------------|
--7--7----5--7--7----5-7-|--7--7----5--7--7----5-7-|--7--7----5--7--7----5-7-|


  E  Q    E  E  Q    S S    E  Q    E  E  Q    S S    E  Q    E  E  Q    S S  
-------------------------|-------------------------|-------------------------|
-------------------------|-------------------------|-------------------------|
-------------------------|-------------------------|-------------------------|
--7--7----5--7--7----5-7-|--7--7----5--7--7----5-7-|--7--7----5--7--7----5-7-|


  E  Q    E  E  Q    S S    E  Q    H        S S S S  
-------------------------|---------------------------|
-------------------------|-----------------------7---|
-------------------------|---------------------9---9-|
--7--7----5--7--7----5-7-|--7--7---------------------|


  E  S S E  S S E  E  S S    E  S S E  S S E  E   E  S S S S  
--------------------------|----------------------------------|
--9--7----------------7---|--9--7------------------------7---|
-------9-5--7-5---------9-|-------9-5--7-5-------------9---9-|
----------------7--7------|----------------7--7\-------------|


  E  S S E  S S E  E  S S    E  S S E  S S E  E   Q.      
--------------------------|------------------------------|
--9--7----------------7---|--9--7------------------------|
-------9-5--7-5---------9-|-------9-5--7-5---------------|
----------------7--7------|----------------7--7\---------|


  S S S S E  S S E  E  S S    E  S S E  S S E  Q.                
---------------------------|---------------------------|-------||
-----------------------7---|--9--7---------------------|-------||
--9-9-9-9-9--9-9---------9-|-------9-5--7-5------------|-------||
-----------------7--7------|----------------7--7\------|-------||




Duration Legend
---------------
W - whole
H - half
Q - quarter
E - 8th
S - 16th
T - 32nd
X - 64th
. - note dotted
|-n-|  - n-tuplets


Tablature Legend
----------------
L - tied note
x - dead note
g - grace note
(n) - ghost note
> - accentuded note
NH - natural harmonic
AH - artificial harmonic
TH - tapped harmonic
SH - semi harmonic
PH - pitch harmonic
h - hammer on
p - pull off
b - bend
br - bendRelease
pb - preBend
pbr - preBendRelease
brb - bendReleaseBend
\n/ - tremolo bar dip
\n - tremolo bar dive
-/n - tremolo bar Release up
/n\ - tremolo bar inverted dip
/n - tremolo bar return
-\n - tremolo bar Release down
S - shift slide
s - legato slide
/ -  slide into from below or out of upwards
\ -  slide into from above or out of downwards
~ - vibrato
W - wide vibrato
tr - trill
TP - tremolo picking
T - tapping
S - slap
P - pop
< - fade in
^ - brush up
v - brush down
comments
We did not receive enough feedback on this tab! Please rate:
print report bad tab
1 2 3 4 5
I want to post or [tab]
guest
You may want to rate the tab now too:
select rating
Please do not post tabs as comments. Select "correction" instead!