Oops, an error
Loading. Please wait.

Power To Love Tab

20,439 views 63 this week
8 commentsread comments
1 2 3 4 5
excellent!
x 8
Autoscroll
+/-
esc
set tempo
stop
WARNING: You are trying to view
                                    content from Ultimate-Guitar.com
                                    in an unauthorized application,
                                    which is prohibited.

                                    Please use an official Ultimate
                                    Guitar Tabs application for iPhone,
                                    iPad or Android to access legitimate
                                    chords, guitar, bass, and drum tabs
                                    from Ultimate-Guitar.com database.

                                    Type "ultimate guitar tabs" in Apple
                                    App Store's or Android Market's
                                    search to find the application.
Band/Artist: Jimi Hendrix (Band Of Gypsys)
Song: Power To Love



      E  S  S E   E    S S S S E   E     E  S E    S S S  S  S S S S  S  E   
D#||--7-------7-----------------------|-------------------------------------|
A#||--7-----7----10br--L-L-7----------|--7--7-9br--L-7-9--------------------|
F#||--8--9b------------------9-7b-----|--8--7-9b---L-7-9-----------7b-------|
C#||--9----------------------------9--|--9---------------(7)---7------9p-7--|
G#||----------------------------------|--x----------------7h-9---9----------|
D#||----------------------------------|--7----------------------------------|


  >                          >                                >             
  E  E   S S  E   E   S S  S E   S    E  S S  S S  S S  S  S  E   S S  S S  
-----------7-10b--L--10-7-10-7~--L-|-----7---------------------------------|
--7------7-------------------------|-------7-10----7--------------x--------|
--8--9b----------------------------|------------9b---9b-7-(9)-7~--x--------|
--9--------------------------------|-----------------------9------x------7-|
--x--------------------------------|--------------------------------7h-9---|
--7--------------------------------|---------------------------------------|


                                                            >    
  S S S S S S S S S S E  S S  S S    S S S S S S S S S S S  S    
----------------------------------|-----------------------------|
----------------------------------|----9------------------------|
--9-9-7-----7---7-9-9-7-----------|--9-9-7---7-7---7-9-7----9~--|
--9-9-7---7-7-9-7-9-9-7---------7-|--9-9-7---7-7---7-9-7----8~--|
--------9-----9------------7h-9---|--------9-----9-------x--x---|
----------------------------------|------------------------(8)~-|


                           lots o wah & fuzz                                 
                           >                 >        >                      
   H.             Q        Q                 Q        S     S S S   E   E    
-----------------------|----------------------------------------------------|
-----------------------|--10b~--------------10pb~----10pbr~-7---------------|
--(9)~-----------------|--------------------------------------9-9pb-7~--9b--|
--(8)~-----------------|----------------------------------------------------|
-----------------------|----------------------------------------------------|
--(8)~-----------------|----------------------------------------------------|


                            >         >    >  >       >                   >     
  Q       E   S S  S S S S  Q         E    E  S S  S  T  T  S S S  S  E   E     
-----------------------7---10b----|--10b--10--7---10b-7h-9p-7---7--------------|
---------------------7---7--------|-------------7-------------9---10-10--10b~--|
--9pb~----9p--7-9b-L--------------|--------------------------------------------|
----------------------------------|--------------------------------------------|
----------------------------------|--------------------------------------------|
----------------------------------|--------------------------------------------|


                                                                >        
                              |---3---|                                  
  E.  S S   S  S S   S S  S S E    E  E      Q      E.   S  S S Q    E   
-----------------------------------------|--12b----12~---9-----------0--|
--L-----------10----------------------9--|-----------------12-9------0--|
------9-9br-L----9br-L-7b--------/10-----|------------------------------|
--------------------------9-7-9----------|------------------------------|
-----------------------------------------|------------------------------|
-----------------------------------------|----------------------0-------|


            wah off                   
  >         >                         
  H         E       S  S  S  S  E     
--0--------14b-----14-12-------------|
--0----------------------14-12-------|
-------------------------------(5)\--|
-------------------------------------|
-------------------------------------|
-------------------------------------|


                                  >               
   S   S  E    S  S  S  S   S  S  E   S S   S  S  
-------------------------------------------------|
------12-----------------------------------------|
--(0)----12b-------------------------------------|
--------------14-12--------------12~--L----------|
--------------------14-12S-11-12--------6S-14-12-|
-------------------------------------------------|


    >     >                           >        \0/      
    S  S  S  S  S  S  S     S  S   S  E   S  S S    S   
---------12-14-12--------------------------------------|
------12----------15-------12--------------------------|
--/13-12-------------14pbr----12b----------------------|
----------------------------------14-12~--L------------|
--------------------------------------------13---------|
-----------------------------------------------0---17S-|


            wah on                        
   >  >   > >          >    >    >   >    
   E  S S S S      S S S  S S  S E   E    
---------------------5-------------------|
-------------------5---8b-L-8b-L-8b--8b--|
------------7b---------------------------|
------5---5------------------------------|
--------7--------------------------------|
--/7-------------------------------------|


  >   >   >   >   >   >   >   >   >   >        
  |---3---|   |---3---|   |---3---|            
  E   E   E   E   E   E   E   E   E   E    E   
----------------------------------------------|
--8b--8b--8b--8b--8b--8b--8b--8b--8b--8b~--L--|
----------------------------------------------|
----------------------------------------------|
----------------------------------------------|
----------------------------------------------|


              >      >     >        >     >      >     >     >     >   
  E  S S S E  S  S S E   S E   S    E   S S  S S E   S E   S S  E  S   
---------------------------------|------------------------------------|
--L--L-L-L-L--8b-L-L-8b--L-8b--L-|--8b--L-8b-L-L-8b--L-8b--L-8b-L--8b-|
--------------8b-L-L-------------|------------------------------------|
---------------------------------|------------------------------------|
---------------------------------|------------------------------------|
---------------------------------|------------------------------------|


                                                     wah off                
          >                                                                 
  E  Q    E    E  S S S S S S    S S S S S   S S S S S       S S S S  S  S  
------------------5-----5-7---|--------------------------------------------|
--L--L----8b~--L----5---5---7-|--5---7-------------------------------------|
----------------------8-------|----7---7-5pb-L-----------------------(5)---|
------------------------------|----------------7-5-7-5----------------5----|
------------------------------|------------------------------7-6-5-7-----5-|
------------------------------|--------------------------------------------|


                  \0/                        
  S S S S S S S S S   S E  T   T    S S  S   
--------------------------------------------|
------------------------7--5----------------|
----5-----5-------------7--5p-(0)-----------|
----5---9-5-------------7---------------(7)-|
--7---7-----7-6-5-----------------5g7-7--7--|
------------------8---5---------------------|


        >                                                                 
                   |--3--|                                                
  S S S S  Q    E  S   S S S S  S S    S S S   S    Q    S S S  S E  S S  
------------------------------------|------------------------------------|
------------------------------------|------------------------------------|
-----------------------------5------|--5-7-7pb-7pb~-L----L-L-9b-L-L------|
--5---5-7b-L----L--7b~-L-L-L-5p-0-7-|--------------------------------5---|
----7-------------------------------|----------------------------------7-|
------------------------------------|------------------------------------|


  S S S S  Q     E    S  E  E    S     T   T S S S   Q    S S S S  S   S  S S  
------------------------------------|-----------------------------------------|
----------------------------8b~--8b-|-----------------------------------------|
---------------------(5)-5----------|--8pb-L-7-5-7b~-L----L-L-5---------------|
--5---5-7b-L----(7)-----------------|---------------------------7-(7)\--------|
----7-------------------------------|----------------------------------5h-7-7-|
----0-------------------------------|-----------------------------------------|


  S S  S  S S S S S S  S E  S S S S    S S S S S S S S S  S E  S S S S  
------------------------------------|----------------------------------|
-------------------------7--5-5-5-5-|-----------------------7--5-------|
--5---(5)----------------7--5-------|--5---5----------------7--5-------|
--5----5--9-5------------7----------|--5---5-9-5-------------------5---|
----7---------7-6-5-----------7-7-7-|----7-------7-6-5-----------7-7-7-|
--------------------8b-5------------|------------------8b-5------------|


                                                          Fuzz off           
  S S S S S S S S S  S E  S S S S    S S S S S S S S  S S E        S S  S S  
----------------------------------|-----------------------------------------|
-----------------------7--5-------|-----------------------------------------|
--5---5---5------------7--5-------|------5---5------------------------------|
--5---5-9-5-7---5----7-7--5-----7-|--5-7-5-9-5---6-------------------7----7-|
----7-------7-6-5----x------6-7-7-|----7-------7-6-------------------7h-9---|
------------------8b-5------------|----------------8b-5-0-------------------|


  E   S   S E   S S E  E   S  S S  S S S      E  S S E   S S E  S  S S S  
-----------------------------------------|-------------------------------|
-----------------------------------------|-------------------------------|
-------------------------------------7---|--7g9--7-------------------7---|
--9~--7---------------------------/9-7-9-|--7g9--7-----------------9-7-9-|
--------9g7-5b--7-5-6-------------/9---9-|---------9-5b--7-5-6--6S-9---9-|
--------------------7--7S--3S-1----------|-------------------7--7--------|


    E  S S  E  S S E  E   S  S S  S S S      E  S   S S  S S S E  S  S S S  
----------------------------------------|----------------------------------|
----------------------------------------|----------------------------------|
------------------------------------7---|--7g9--7----------------------7---|
--7g9--7-------7-----------------/9-7-9-|--7g9--7--------------------9-7-9-|
---------9S-5--7-5-6-------------/9---9-|---------9g7-5b-L-7-5-6--6S-9---9-|
-------------------7--7S--4S-2----------|----------------------7--7--------|


         PM                                                                 
    E  S S  S S S  S   E  S S S S S S      E  S S S S S  S    E  S S E  E   
--------------------------------------|------------------------------------|
--------------------------------------|------------------------------------|
--7g8--8----9---9----7g8--8---9---9-9-|--7g8--8---9---9-(9)-7g8--8---9-----|
----7--7----9---9p-7---7--7---9---9-9-|----7--7---9---9-(9)---7--7---9--9--|
----x------------------x--------------|----x------------------x------------|
----7----7----7--------7----7---7-----|----7----7---7---------7----7-------|


  E  E  S S S S E  S  S  S S S S    E  S S S S S  S  S  S  S S S S S S  
---------------------------------|-------------------------------------|
---------------------------------|-------------------------------------|
--8--8--9-9-9---8--8-----9-9-9---|--8------9-9-9-----------8-8-9-9-9---|
--7--7--9-9-9-x-7--7-(9)-9-9-9-9-|--7--7---9-9-9-(7)-7-----7-7-9-9-9-9-|
----------------x----------------|--x------------------(7)-------------|
----------------7----------------|--7----7-----------------------------|


                     >  >                                 >  >            
    E  S   S E   S S E  E   S  S S S      E  S   S E  S S E  E   S S S S  
-------------------------------------|-----------------------------------|
-------------------------------------|-----------------------------------|
-------------------------------------|-----------------------------------|
--7g9--7-------------------------7---|--7g9--7-----------------------7---|
---------9g7-5b--7-5----------/9---9-|---------9g7-5--7-5----------9---9-|
---------------------7--7~--L--------|--------------------7--7~--L-------|


                                                    PM                       
   E  E   S S S S   E  E    E   E      S T  T S  T  T E.  S S S S S S S S S  
------------------------------------|---------------------------------------|
--10--------------------------------|---------------------------------------|
------9b--L-7-9-9-7g9--7b~----------|---------------------------------------|
----------------------------7b--9~--|--7------------------7-7-9-9---9-9-9-9-|
------------------------------------|----9p-7-9p-7----9-----------9---------|
------------------------------------|--------------10-----------------------|


    E   S   S E   S S E   E   S  S S S  
---------------------------------------|
---------------------------------------|
---------------------------------------|
--7g9~--7--------------------------7---|
----------9g7-5~--7-5-----------/9---9-|
----------------------7~--7~--L--------|


                                                                    PM  PMPM  
  E   S   S E   S S S S S  S  S  S  S S    E  E   E   E  S S S S  S S   S S   
----------------------------------------|------------------------------------|
----------------------------------------|------------------------------------|
--------------------------(6)---------9-|------------------------------------|
--9~--7--------------------x----(9)---9-|--9--9--11--11--9---9---11----11----|
--------9g7-5~--7-5---6----7-----8------|--7--7---7---7--7-7-7-7--7-7-----7--|
--------------------7-------------------|------------------------------------|


                     PM PM PM PM PM PM PM                                      
  E  S S  S S  S S S S  S  S  S  S  S  S     E  S S  S S S S E  S S  S  S S S  
------------------------------------------|-----------------------------------|
------------------------------------------|-----------------------------------|
------------------------------------------|-----------------------------------|
--9--9-9-11---11-9------------------------|--9--9-9-11---9---9--9-9-11-11---9-|
--7--7-7--7-7--7-7-7-5--4--5--4--5--4--5--|--7--7-7--7-7-7-7-7--7-7--7--7-7---|
------------------------------------------|-----------------------------------|


  S S S  S  S  S  S  S  S  S  S  S  S  S  E    
----------------------------------------------|
----------------------------------------------|
------9-10-10-10-11-11-11-12-12-12-13-13-14\--|
--9-9-x--x--x--x--x--x--x--x--x--x--x--x--x---|
--7-7-7--8--8--8--9--9--9-10-10-10-11-11-12\--|
----------------------------------------------|


    E  S   S E   S S E  E   S  S S  S S S      E  S   S E   S S E  S  S S S  
------------------------------------------|---------------------------------|
------------------------------------------|---------------------------------|
--------------------------------------7---|-----------------------------7---|
--6g9--7---------------------------/9-7-9-|--7g9--7---------------------7---|
---------9g7-5b--7-5-6-------------/9---9-|---------9g7-5b--7-5------/9---9-|
-----------------0---7--7S--4S-2----------|---------------------7--7--------|


    E  S   S E   S S E  E   S  E   S S S      E  S   S E   S S E  S S S S  
-----------------------------------------|--------------------------------|
-----------------------------------------|--------------------------------|
-----------------------------------------|--------------------------------|
--7g9--7-----------------------------7---|--7g9--7--------------------7---|
---------9g7-5b--7-5-6------------/9---9-|---------9g7-5b--7-5-6--6-9---9-|
---------------------7--7S--4S-2---------|---------------------7--7-------|


               >                                                          
    E  E  E  S S  E  S S E  S S    S  S   E  E  S S S  S  S S   S  S S S  
--------------------------------|----------------------------------------|
--------------------------------|--7-10b~-L--x---------------------------|
---------------9b-L--6------7-9-|------------x--------(7)-9-9pb-7b-L-7---|
--9g9--9--7--9---------7--------|------------x------9------------------9-|
-------x------------------------|----------------------------------------|
-------7-----------------7------|---------------7-7----------------------|


  E  E  S S S S   T T S S  S  E   E       E   S  S  S S S S S S S S S   S S S  
---------------------------------------|--------------------------------------|
---------------------------------10b~--|--7\----------------------------------|
--------------9br-L-7------------------|--7\----------------------------------|
--------x-9-9---------9-7--------------|----------------9-9-9-9-9-9-----------|
--9--9---------------------------------|----------------x-x-x-x-x-x-------2-2-|
--7--7--------------------(7)-7--------|------7-(7)-7-7-7-7-7-7-7-7-0-2g4-----|


  E  S S E  S S E  E  S S  S S    E   S S E   S S E  E  S S  S S  
-------------------0--L--------|---------------------0--L--------|
-------------------0--L--------|---------------------0--L--------|
-------------------------------|---------------------0--L-4----4-|
-------------------------------|--------------------------4h-6---|
--4--2---2-------------------2-|--4~--2---2~---------------------|
-------4----4-2-0-------2h-4---|--------4-----4-2-0--------------|


    S S S S S S S S S S S S S S  S S    S S S S S S S S S S S S S   E  S  
------0-0---0-0----------------------|----0-0-----0----------------------|
-------------------------------------|-----------------------------------|
--6g7-7-6-4-6-6-4---7-4-------4----4-|--7-7-6-4-6-6-4---7-4---4----------|
------------------6-----6-----4h-6---|----------6-----6-----6------------|
-------------------------------------|----------------------------5g7--7-|
--------------------------0-L--------|--------------------------x--------|


  S S S S S S S S S  S E   S S S S    S S S S S S S S S  S E  S S  S S  
-----------------------------------|-----------------------------------|
-----------------------------------|--------------------------5--------|
-----------------------5~----------|-----------------------7--5--------|
--5---5-9-5----------------7-------|--5---5-9-5------------7--5-5------|
----7-------7-6-5------------5-7-7-|----7-------7-6-5-----------5h-7-7-|
------------------8b-5-------------|------------------8b-5-------------|


  S S S S S S S S S  S E  S S  S S    S S S S S S S S S  S E  S S S  S   
-----------------------------------|------------------------------------|
-----------------------------------|------------------------------------|
-----------------------7--5--------|--------------------------------(5)-|
--5---5-9-5------------7-----------|--5---5-9-5---5--------7--5-5-5-----|
----7-------7-6-5-----------5h-7-7-|----7-------7-6-5---------x-x-x--7--|
------------------8b-5-------------|------------------8b-5----5-5-5-----|


    Octavia                                                               
                                  |-3-|                                   
  S S       S S S S S S Q      E  S S S    Q.      S   S  S  E.    Q      
----------------------------------------|--------------------------------|
----------------------------------5-----|----------5S-10-10-10~---10~----|
------------------------7b~----x----5-5-|--5~----------------------------|
--5-5-------5-5-5-5-5-5-----------------|--------------------------------|
----------------------------------------|--------------------------------|
----------------------------------------|--------------------------------|


   S   S   S   S   E    S   S   S  S  S  S  S   E.    
-----------------------------------------------------|
--10~-10~-10~-10~-10~--10~-10~-10-13-10-13-10h-13~---|
-----------------------------------------------------|
-----------------------------------------------------|
-----------------------------------------------------|
-----------------------------------------------------|


   S  S  S  S  Q       S  S   Q.        
-----------------------------15b~------|
--15-15-15-15-15b~----13---------------|
-------------------------(0)-----------|
-------------------------(0)-----------|
---------------------------------------|
---------------------------------------|


   |----3----|    |--3-|                                
   E    E    E    E    Q       S    E    S  S  S S  S   
--15b--15b--15b--15b-------------------------------15b-|
----------------------15b~----15pb-13b--15-13----------|
----------------------------------------------14-------|
-------------------------------------------------------|
-------------------------------------------------------|
-------------------------------------------------------|


   S E.   S    E   S  S  T   T   S  S  S  E.    
---L-L---15pb-15--12-15-12h-15p-12----12-------|
-----------------------------------15----15b---|
-----------------------------------------------|
-----------------------------------------------|
-----------------------------------------------|
-----------------------------------------------|


   S   E    S  S    S   E   E     S  S  S  S  S  S  
--15b-15b--15-15pb---------------------------------|
-------------------15b~-L--15pbr--L-13-15-13-------|
---------------------------------------------14-14-|
---------------------------------------------------|
---------------------------------------------------|
---------------------------------------------------|


   S  S  S   S  S  E.    E   S  S  E   S  S   
---------------------------------------------|
--13-15-15b-13-15-13b~---L--13-13~-L--12-12~-|
---------------------------------------------|
---------------------------------------------|
---------------------------------------------|
---------------------------------------------|


  E   S   S   Q    S S  S  S  S   S  S    S     
-----------------------------------------------|
--L--13b-13b~-L----L---13-13-13h-15-15pb-15pbr-|
---------------------x-------------------------|
-----------------------------------------------|
-----------------------------------------------|
-----------------------------------------------|


  E   S  S  E.   S   E   S   S  S   S  S   S  
---------------------------------------------|
--L--13-13~-L---13b~-L-----------------------|
------------------------12h-14-12h-14-12h-14-|
---------------------------------------------|
---------------------------------------------|
---------------------------------------------|


   S   S  S   S  S  S   S  S  S  S   S  S   S  S  S  S  
-------------------------------------------------------|
-------------------------------------------------------|
---------12b----14-12b---------------------------------|
--12h-14-----14--------14-13-12-10b-12-12br-L-10-------|
-------------------------------------------------12-12-|
-------------------------------------------------------|


   S   S  S  S  S  E.    E.    S    S S  E     
----------------------------------------------|
----------------------------------------------|
----------------------------------------------|
---------------10-12b---12b---12brb-L-L-12b~--|
---------10-12--------------------------------|
--10h-12--------------------------------------|


     vibrate more violently than indicated here                            
  S  E.                                         E.     S  E   E   S  E.    
--------------------------------------------------------------------------|
--------------------------------------------------------------------------|
--------------------------------------------------------------------------|
--L-12b~---------------------------------------12b~---12~-L--12~--L-12~---|
--------------------------------------------------------------------------|
--------------------------------------------------------------------------|


   H         E   Q     E      S  E.    S  S  S  S  S   S  S  S S S  S S  
--------------------------|---------------------------------------------|
--------------------------|---------------------------------------------|
--------------------------|---------------------------------------------|
--12~--------L--12b----L--|--10-10~---12-10----10-12br-L-10----x--------|
--------------------------|-----------------12--------------12-x-5S-7-7-|
--------------------------|------------------------------------x--------|


  S S S S S S S S S S E  S S  S S  
----------------------------------|
----------------------7-----------|
----------------------7--5--------|
--5---5-9-5---------7-7--5--------|
----7-------7-6-5---x------5h-7-7-|
------------------8-5-------------|


  Octavia off                                  
  S           S S S S S S S S  S E  S   S S S  
----------------------------------------------|
---------------------------------7------------|
---------------------------------7--5---------|
--5-------------5-9-5---5--------7--5---------|
--------------7-------7-6-5-----------5g7-7-7-|
----------------------------8b-5--------------|


  S S S S S S S S S S E  S   S S S    S S S S S S S S E  S S S S S S  
-----------------------------------|---------------------------------|
----------------------7------------|---------------------------------|
----------------------7--5---------|--5-----------5---5--5-5-5---5---|
--5---5-9-5---5-----7-7--5---------|--5-----7-7---5---5--5-5-5---5---|
----7-------7-6-5---x------5g7-7-7-|--------x-x----------------7---7-|
------------------8-5--------------|----5-5-5-5-5---5----------5-----|


                                       PM                               
  E  S S S S S S S S S S S S S S    S  S S S S S S S S S S S   S S S S  
---------------------------------|-------------------------------------|
---------------------------------|-------------------------------------|
---------5-5-5-------5-5-5---5---|--5----5---5---5---5---5-7-7g9-7-5-7-|
--5--5-7-5-5-5-5-L---5-5-5---5---|--5----5---5---5---5---5-7-7g9-7-5-7-|
--x--x---x-----------------7---7-|----/9---0---0---0-------------------|
--5--5---5---------5-------------|-------------------------------------|


          PM       PM   PM   PM PM        
    S S S S  S S S S  S S  S S  S  S S S  
-----------------------------------------|
-----------------------------------------|
--7g9-7-5----5---5----5----5-------5-5-5-|
--7g9-7-5----5---5----5-5-------5--5-5-5-|
----------0--------0----0----0--0--------|
-----------------------------------------|


    PM PM PM PM                          
  S S  S  S  S  S S S S S S S S S  S  S  
----------------------------------------|
----------------------------------------|
--5-5--------5------5-------------(5)---|
--5-5--------5----5-5-----5--------5----|
----0--0--0-----0-----0-0---7-0-0-----0-|
----------------------------------------|


    PM   PM   PM   PM   PM   PM   PM                                         
  S S  S S  S S  S S  S S  S S  S S  S S    S S S S S S S S S S S S S S S S  
-----------------------------------------|----------------------------------|
-----------------------------------------|----------------------------------|
--5----5----5----5----5----5----5----5-5-|----------5---5---5-5-5---5---5-5-|
--5----5----5----5----5----5----5----5-5-|--5---7---5---5---5-5-5---5-5-5-5-|
----0----0----0----0----0----0----0------|----0-0-0-0-0---0-------0---0-----|
-----------------------------------------|----------------------------------|


  S  S S   S S    S S  S S  S  S S S   S S   S  
-----------------------------------------------|
-----------------------------------------------|
-----------------------------------------------|
--5----5-5g7-L--7g9-9----9-----9-7-7-7g5-5-----|
--5h-7---7g9-L-9g10---10---10-10-9-9-9g7-7-7g5-|
-----------------------------------------------|


  S S S S S  S S  S  S S S S   S S S S    E  S S S S S S E  S S S  S  S S  
---------------------------------------|----------------------------------|
-----------------(0)-------------------|----------------------------------|
-----------------------------5g7-7-5---|--5--------------5----------------|
--4-4-4-4-4----5--5--L-5-5-5---------7-|--5--5---7-7-7---5--7-7-5-----5-7-|
--5-5-5-5-5S-7-7--7--L-7-7-7-----------|--0--0-0-0-0-0-0-0--0-0-0-(0)-0---|
---------------------------------------|----------------------------------|


  E  S S S S S S S S S S S S S S    S S S S S S S S S S S S S S S S  
---------------------------------|----------------------------------|
---------------------------------|----------------------------------|
---------5---5-5-----5---5---5---|--5---5---------------5---5-------|
--5--7-7-5-7-5-5-5---5---5---5---|--5---5---5---5---5-5-5---5-5-5-5-|
-----0-0-0-0-----0-0---0---7---0-|----0---0---0---0---0-0-0---0-----|
---------------------------------|----------------------------------|


  S E   S S E  S E  S S  S S S  S    S S  S S E   S    S    S E   S S S S S  
----------------------------------|-----------------------------------------|
----------------------------------|--8------8-8---8---(8)-----8---8-5---5---|
--7-5b------5----------------7b-L-|----7b-L---7b--7pb--7pbr-L-7b--7-5-7-5---|
--------7-L-5---------------------|-----------------------------------7---7-|
---------------7-6--5-------------|---------------------------------------0-|
----------------------8b-L-5------|-----------------------------------------|


  S  S  S S S S S S S S S S S S S S    E  S S S S S S S S S S S S S S  
------------------------------------|---------------------------------|
------------------------------------|---------------------------------|
------------------------------------|--5--5---------------------------|
--5-----5-5-5---5-5-5-5-5---5---5---|--5--5-7-5---5-7-5---5---7-7-5---|
--0-(7)-0-0-0-0-0-0-0-0-0-0-0-0-0-0-|-----0---0-0-0-0-0-0-0-0-0-0-0-0-|
------------------------------------|---------------------------------|


  S S S S S S S S S S S S S S S  S      E   S   S E    S S S S S S S S S S  
-------------------------------------|-------------------------------------|
------------------------------8--8---|--8---8---8-8----8-------------------|
--5---5-----------------------7b-7pb-|--5b--5pb-5-5pb--5-5-----------------|
--5---5-7-5-5-5-5-7---5---5----------|---------------------7-7-7-7-7-7-7-7-|
----7---0-0-------0-0-0-0-0-0--------|-------------------------0-0---0---0-|
-------------------------------------|-------------------------------------|


    S S S S S S S S S   S  E  S S  S S    S S S S S S S S S  S E  S  S  S S  
---------------------------------------|------------------------------------|
---------------------------------------|------------------------------------|
---------------------------7--5--------|------------------------------------|
------5-5-9-5---5------(7)-7--5-5----5-|--5---5-9-5---5--------7--5-----5---|
--5g7---------7-6-5-----x-------5h-7-7-|----7-------7-6-5------x--0-(0)-0-0-|
--------------------8b--5--------------|------------------8b-5-5------------|


  S S S S S S S S S S S S S S S S    S S S S S S S S S S S S S S S S  
----------------------------------|----------------------------------|
----------------------------------|----------------------------------|
----------5---5-5-5---5---5---5---|--5---5-5-5---5---5---5---5---5-7-|
--5---5-7-5---5-5-5---5---5---5---|--5---5---5---5---5---5---5---5-7-|
----0-0---0-0-----0-0---0---0---0-|----0-------0---0---0---0---0-----|
----------------------------------|----------------------------------|


  S S S S S S S T  T  S S S S S S S S    S S S S S S S S S S S S S   S S S  
--------------------------------------|------------------------------------|
--------------------------------------|------------------------------------|
--5---5-7-5---5---(0)-5-------5-5-5-5-|--5---5-5-5-------------------------|
--5-5-5-7-5---5-------5---5---5-5-5-5-|--5---5-5-5---5-5-5-5-5-5-5---------|
----0-------0---0-----0-0-0-0-0-0-0-0-|----0-0-0-0-0-0-0-0-0-0-0-5-7g7-7-7-|
--------------------------------------|------------------------------------|


  S S S S S S S S S S S S S S S S    E  S S S   E  S S S S S S S S S  
----------------------------------|----------------------------------|
----------------------------------|-------------0--0-0---------------|
--5-------------------------------|-----------5g7--7-5---------------|
--5---5-5-5-5-x-5-5---7---7-7-5-5-|--5--7---7----------7-5-----------|
--0-0-------------0-7-7-7-0-0-0-0-|--0--0-7-0--------------7-6-5-----|
----------------------------------|------------------------------8-5-|


  S S S S S  S S S S S S  S S S S S    S S  S S S S S S S S S S S S  S S  
------------------------------------|------------------------------------|
------------------------------------|------------------------------------|
---------------5--------------------|-------5----------------------------|
--5------------5------------7-5---5-|-------5-----------7-5---5------7-5-|
----7-6-5--------7-6-5----------7-6-|--5------7-6-5---------7-6-5--------|
----------8b-5---------8b-5---------|----8b---------8-5-----------8b-5---|


    PM PM PM PM PM PM PM PM PM PM PM PM PM PM PM  
  S S  S  S  S  S  S  S  S  S  S  S  S  S  S  S   
-------------------------------------------------|
-------------------------------------------------|
-------------------------------------------------|
--5-5--5--5--5--5--5--5--5--5--5--5--5--5--5--5--|
----0--0--0--0--0--0--0--0--0--0--0--0--0--0--0--|
-------------------------------------------------|


     PM PM PM PM PM PM PM PM PM PM PM PM  
  E  S  S  E  E  S  S  S  S  S  S  S  S   
-----------------------------------------|
-----------------------------------------|
-----------------------------------------|
--5--5--5--5--5--5--5--5--5--5--5--5--5--|
--0--0--0--0--0--0--0--0--0--0--0--0--0--|
-----------------------------------------|


  PM PM PM PM PM PM PM PM PM PM PM PM PM PM  
  S  S  S  S  E  S  S  E  S  S  S  S  S  S   
--------------------------------------------|
--------------------------------------------|
--------------------------------------------|
--5--5--5--5--5--5--5--5--5--5--5--5--5--5--|
--0-----0--0--0--0--0--0--0--0--0--0--0--0--|
--------------------------------------------|


  E  S S S S S S S S S S S   S S S    S S S S S S S S S S S  S S S S S  
-----------------------------------|-----------------------------------|
-----------------------------------|-----------------------------------|
-----------------------------------|-----------------------------------|
--5------5-5-5-5-5-5-5-5-5-------5-|--5---5-9-6---6---6---6-10-6-------|
--0--0-0-0-0-0-0-0-0-0-0-5-5g7-7-7-|----7-------8-8-8---8--------9-9-9-|
-----------------------------------|-----------------------------------|


  S S S  S S S S S  S  S E  S   S S S  
--------------------------------------|
--------------------------------------|
-------------------------9--7---------|
--7---7-11-7-------------9--7-------7-|
----9--------9-8-7------------7g9-9---|
-------------------10b-7--------------|


  E   S   S E   S  S E  E    S   S S S S S      E  S   S E   S  S E  S S S S  
-------------------------------------------|---------------------------------|
-------------------------------------------|---------------------------------|
---------------(0)----------(0)------------|----------------(0)--------------|
--9~--7---------------------(0)--------7---|--7g9--7---------------------7---|
--------9g7-5---7--5------------/9---9---9-|---------9g7-5---7--5-9--9-9---9-|
---------------------7--7\-----------------|----------------------7--7-------|


    E   S   S E   S  S E   E  S   S S   S S S  
----------------------------------------------|
----------------------------------------------|
---(9)--7--------(0)--------------------------|
--7g9---7---------------------------------7---|
----------9g7-5---7--5-6--------2g8---5g9---9-|
-----------------------7--/7------------------|


    E  S   S E    S  S E  S S S S    E  S S E  S  S  S  S S S S S S S  
----------------------------------|-----------------------------------|
----------------------------------|-----------------------------------|
-----------------(0)--------------|---------------------------7-9-----|
--7g9--7----------------------7---|--9--9-9-7--9----------7---7-9-7---|
---------9g7-5b---7--5-6--6-9---9-|-----x------------7h-9---9-------9-|
-----------------------7--7-------|-----7--------(0)------------------|


  E   S S S S S S S S S S S S S S  
----------------------------------|
----------------------------------|
----------------------------------|
--7~--9-9-9-9-9-7-9-9-9-7-9-7-9-9-|
----------------------------------|
----------------------------------|


  S  S S S  S  S  S S  T  T S  S  S S S S  S   
----------------------------------------------|
-----------10-10-10-----------------------10b-|
-------x----x--x--x-9b-9p-7-------------------|
--7h-9---x--7--7--7---------9-(7)-9-9-9-7-----|
----------------------------------------------|
----------------------------------------------|


  S   T    T  S S S S S S S S S S S S  S S  
-------------------------------------------|
--L-(10)p-(7)------------------------------|
--x----------------------------------------|
--------------9-7-9-9-7---7-9-9-9-9-7----7-|
------------------------9-----------8h-9---|
-------------------------------------------|


  S  S  S S S S S S   S S S  S S S S  S     S S S S S S S S S S  E   S S S   S  
-----------------------------------------|-------------------------------------|
-------------------------------------10b-|--L-7---------------9------x---------|
------------------9br-L-7----------------|----7-----------9-9-9~-7~------------|
--9-----9-9-7-9-7---------9p-7-9-7-7-----|------9-7-9-7-7--------------9-7-----|
----(9)----------------------------------|---------------------------------9g7-|
-----------------------------------------|-------------------------------------|


  S S S  S S  S S S  S  S  S   S   E   S S  
-------------------------------------------|
-------------------------------------------|
------9-----------9b-L--7---------(7)--7-7-|
----9-9p-7-9p-7-9------(0)-9p-(7)--9---9-7-|
--6----------------------------------------|
-------------------------------------------|


  S   T T S S S S T  T   S S S S  S S  S  S S  
----------------------------------------------|
---------------------------------10---10-10---|
--9br-L-L-7------------7g9-9-9-7--7----x--x---|
------------9-9-9-9p-7-----------------7--7-9-|
----------------------------------------------|
----------------------------------------------|


  E  S S E  S S   E    S  S  E  S  S    S  S S S S S S S S S S S S S S S  
-------------------------------------|-----------------------------------|
-------------------------------------|-----------------------------------|
--------------------------------9b-L-|--9p-7-------------9-9-8-9-7-7-----|
--9--9-9-7--9-9-7g9--7g9p-7h-9-------|-------9-9-9-9-9-7-------------9-9-|
-------------------------------------|-----------------------------------|
-------------------------------------|-----------------------------------|


                           |--3--|          
    S S   S S S S  S S  E  S   S S E    E   
-------------------------------------------|
------------------10-7-10------------------|
---------------------------9br-L-7----7g9--|
--7g9-9-7g9-9-9-7------------------9-------|
-------------------------------------------|
-------------------------------------------|


      |--3-|                                                            
  E   S  S S E   E   S S S S S S S  S    S S S S E  S S   Q     Q       
--------------------------------------|--------------------------------|
--------------------------------------|--------------------------------|
--7~-------------------------9-9-7b-L-|--------x--------xg9b----9br----|
------9p-7------(7)--7-9-9-9----------|--9-7-7-x-7--9-9----------------|
-----------9-x------------------------|--------------------------------|
-------------x------------------------|--------------------------------|


  S  T   T E   E   S  S E  S   S S  T   T E    
----------------------------------------------|
------------------------x---------------------|
--L-(9)p-7-9~--7~-------x--9br-L-L-(9)p-7-9~--|
-------------------9p-7-----------------------|
----------------------------------------------|
----------------------------------------------|


                                       |----3---|  
  E     S  S  S S  S  S  S  S S   S E  S    S   S  
--------------------------------------------------|
-------------10---10-10-10-10----10-L-------------|
--7~----------x-x--x--x--x--x-9b-------9br-(9)p-7-|
------7g9p-7--7-x--7--7--7--7---------------------|
--------------------------------------------------|
--------------------------------------------------|


  S S S S  E  S S S S S S S S  S  S    E  S   S E  S S E  E   E   S  S S S  
------------------------------------|--------------------------------------|
------------------------------10----|--------------------------------------|
--9-7---7~-L--9-7-L-7----------x-11-|--------------x-----------------------|
------9---------------9-9-7-7--7--x-|--9--7----------------------------7---|
----------------------------------9-|-------9g7-5--7-5-6------------/9---9-|
------------------------------------|------------------7--7S--4S--2--------|


    E  S   S E   S  S E  S  S S S      E  S   S E   S S E  E   E   S  S S S  
----------------------------------|----0------------------------------------|
----------------------------------|----0------------------------------------|
--7g9--7--------(0)---------------|-----------------------------------------|
--7g9--7----------------------7---|--7g9--7-----------------------------7---|
---------9g7-5---7--5-6----/9---9-|---------9g7-5b--7-5-6------------/9---9-|
----------------------7--7--------|---------------------7--7S--3S--0--------|


    E  S   S E   S S E  S  S S S      E  S   S E   S S E  E   E   S  S S S  
---------------------------------|-----------------------------------------|
---------------------------------|-----------------------------------------|
--7g9--7-------------------------|-------------------------------------7---|
-----------------------------7---|--7g9--7--------------------------/9-7---|
---------9g7-5b--7-5-6----/9---9-|---------9g7-5b--7-5-6--6---------/9---9-|
---------------------7--7--------|---------------------7--7S--3S--0--------|


    E  S   S E   S S E  S  S S S    E  S   S E  S S E  Q.                  
---------------------------------|-----------------------------|---------||
---------------------------------|-----------------------------|---------||
--7g9--7-------------------------|-----------------------------|---------||
-------7---------------------7---|--9--7-----------------------|---------||
---------9g7-5b--7-5-6----/9---9-|-------9g7-5--7-5-6--6\------|---------||
---------------------7--7--------|------------------7--7\------|---------||




Duration Legend
---------------
W - whole
H - half
Q - quarter
E - 8th
S - 16th
T - 32nd
X - 64th
. - note dotted
|-n-|  - n-tuplets


Tablature Legend
----------------
L - tied note
x - dead note
g - grace note
(n) - ghost note
> - accentuded note
NH - natural harmonic
AH - artificial harmonic
TH - tapped harmonic
SH - semi harmonic
PH - pitch harmonic
h - hammer on
p - pull off
b - bend
br - bendRelease
pb - preBend
pbr - preBendRelease
brb - bendReleaseBend
\n/ - tremolo bar dip
\n - tremolo bar dive
-/n - tremolo bar Release up
/n\ - tremolo bar inverted dip
/n - tremolo bar return
-\n - tremolo bar Release down
S - shift slide
s - legato slide
/ -  slide into from below or out of upwards
\ -  slide into from above or out of downwards
~ - vibrato
W - wide vibrato
tr - trill
TP - tremolo picking
T - tapping
S - slap
P - pop
< - fade in
^ - brush up
v - brush down
8 comments total. Showing first comments.
+1 reply
stevemeow wrote on December 16 2008, 10:32 pm

just wondering what do the L's mean?

0 reply
und3ad_s4int wrote on April 19 2009, 03:35 pm

Great tab, no errors.

-1 reply
inside_ape wrote on June 2 2009, 06:50 am

get lost as if u checked for errors liar stop trying to act like ur good.

I want to post or [tab]
guest
You may want to rate the tab now too:
select rating
Please do not post tabs as comments. Select "correction" instead!