Oops, an error
Loading. Please wait.

Voodoo Child Slight Return Live Tab

10,636 views 93 this week
1 commentread comment
1 2 3 4 5
excellent!
x 1
Autoscroll
+/-
esc
set tempo
stop
Contributor
Difficulty
Tuning
advanced
D# G# C# F# A# D#
Hey! There's an official Ultimate Guitar app which is ideal
for learning songs when you're away from computer. Get the app
WARNING: You are trying to view
                                    content from Ultimate-Guitar.com
                                    in an unauthorized application,
                                    which is prohibited.

                                    Please use an official Ultimate
                                    Guitar Tabs application for iPhone,
                                    iPad or Android to access legitimate
                                    chords, guitar, bass, and drum tabs
                                    from Ultimate-Guitar.com database.

                                    Type "ultimate guitar tabs" in Apple
                                    App Store's or Android Market's
                                    search to find the application.
                         Voodoo Child (Slight Return)


                                                                    Jimi Hendrix
Guitar (Jimi Hendrix)



      w/wah-wah
      o             +     o   + o   +          o      +    o   + o   +
                                                                             NH
      E         S S S S S S S S S S S S S S    E  S S S E  S S S S S S S S   S
D#||----------------x-x-x-----x-----x-------|--x-------------x-x-x---x---------|
A#||----------------x-x-x-----x-----x-------|--x----x-x-x--x-x-x-x---x-----<>x-|
F#||------------x-x-x-x-x-x-x-x-x-x-x-----x-|--x--x-x-x-x--x-x-x-x-x-x-----<>x-|
C#||--x---------x-x-------x-x---x-x-------x-|-----x----------------x-------<>7-|
G#||----------------------------------------|----------------------------------|
D#||----------------------------------------|----------------------------------|


  o         +     o   + o     +            o       +     o   + o   +
        NH                  NH
  S S   S S S S S S S S S   S S S  S  S    S S S S S S S S S S S S S S S S
--x-x---------x-x-----x-------x---(x)---|----x---------x-x---x---x-x-x---x-|
--x-x-<>x-----x-x-----x-------x---------|--x-x---x-----x-x-x-x---x-x-x---x-|
--x-x-<>x-x-x-x-x-x-x-x-x-<>x-x-------x-|--x-x-x-x-x-x-x-x-9---x-x-x-x---x-|
------<>7-x-x-----x-x---x-<>x---------x-|--x---x---x-x---------9-------9---|
--------------------------<>7-----------|----------------------------------|
----------------------------------------|----------------------------------|


  +                  o +    o     +  o   +      o
                     NH
                                                |--3--|
  T  T  T  T  T  T   S S  S E     E  E   S   S  S  S  S
--------------------------------------------------------|
--------------------------------------------------------|
--7h-9p-7h-9p-7h-9-<>7------7b--------------(5)---------|
-----------------------7h-9-----7g5--5b--7p--5----------|
------------------------------------------------7p-5p-0-|
--------------------------------------------------------|


  +        o          +   o    +
  E.   S   E  E    S  S   E    S     S   E
---------------------------------------------|
---------------------------------------------|
--9~---7------7h~--L-(7)S--------------------|
---------5g7---------------------------------|
---------------------------------------------|
--------------------------0h--(0)S-(12)-(0)--|


  +                  o      +      o
                            |--3-|           |-3|  |--3--|
  T  T  T  T  T  T   S S  S S  S S E   E     E  S  S  S  S
-----------------------------------------------------------|
-----------------------------------------------------------|
--7h-9p-7h-9p-7h-9-8g0------7b-L---------------------------|
-----------------------7h-9--------5b--5b--5g7--5h---------|
---------------------------------------------------7p-5p-0-|
-----------------------------------------------------------|


  +     o             +    o      +
          |-3-|
  E.    S S S S E     E    E      S  S S  S
------------------------------<>(22)---------|
---------------------------------------------|
--9p~---7-------9h~--(9)S--------------------|
----------9-9-L--------------------------(9)-|
---------------------------------------------|
---------------------------0-----------------|


  +                o +    +      o   +   o   +     o
                          |--3-|             |--3--|
  T  T  T  T  T  T S S  S S  S S E   E   S S S  S  S
-----------------------------------------------------|
-----------------------------------------------------|
--7h-9p-7h-9p-7h-9-0------7b-L-----------------------|
---------------------7h-9--------5b--5b--7-5---------|
---------------------------------------------7p-5p-0-|
-----------------------------------------------------|


  +      o  +          o  +
  E.   S E  E     E    E  S S E
---------------------------------|
---------------------------------|
--9~---7----9h~--(9)S------------|
---------9-----------------------|
---------------------------------|
-----------------------0--L-0----|


                                       |-3| |--3--|
  T  T  T  T  T  T S S  S E     E  E   E  S S  S  S
----------------------------------------------------|
----------------------------------------------------|
--7h-9p-7h-9p-7h-9-7------7b------------------------|
---------------------7h-9-----7g5--5b--7--5---------|
--------------------------------------------7p-5p-0-|
----------------------------------------------------|


                                      wah-wah off
            |--3-|
  E.   S E  S  S S  E    E  S E  S    E           S S S  S E  E  E  S S S S
--------------------0----0--0-0--0-|----------------0------0--L--0--0-0---0-|
-------------------10b--10--8-5--0-|----------------0------0--L--0--0-0-0---|
--9~---9-7--9p-7-L-----------------|--------------1-1------1--L--1--1-------|
-----------------------------------|--2-----------2--------2--L--2--2-------|
-----------------------------------|--2-------------------------------------|
-----------------------------------|--0---------------3b-0------------------|


                                 wah-wah on
  |-----3----|  |--3-|
  E     E    E  S  S S   E  Q    Q
-------------------------0--L----0----------|
-------------------------0--L----0----------|
--2br--(2)p--0---------0g1--L---------------|
-----------------------0g2--L---------------|
--------------------------------------------|
----------------3b-0-L----------------------|


                                steady glissando.
   S  E   S  S    S E     Q     S                 T   T  T  T  T  T
---------------------------------------------------------------------|
--10b-L--10-10pbr-L-8pb~--L------------------------------------------|
---------------------------------------------------------------------|
---------------------------------------------------------------------|
---------------------------------------------------------------------|
-------------------------------14S---------------12S-10S-8S-6S-4S-2S-|


  wah-wah off
  E.          S S  S E  S S S  S E  E
------------------------0-0--------------|
------------------------0-0--------------|
------------------------1---2b-L-L-------|
---------------------2--------------2pb--|
---------------------2-------------------|
--0-----------0-3b-0---------------------|


  flip pick-up selector
  +                     o    +   o     +   o     +   o
  S                     E    S   E     S   S   S S   E    S   S S S
---------------------------------------------------------------------|
---------------------------------------------------------------------|
--2pb-------------------2pb--2pb-2pbr--2pb-2pb-L-2pb-2pb--2br-L-L----|
--2pb-------------------2pb--2pb-2pbr--2pb-2pb-L-2pb-2pb-------------|
---------------------------------------------------------------------|
------------------------------------------------------------------3b-|


    E.  S S  S E  S S S  S  E  E
---------------0--L-0-------3-----|
---------------0--L-0-0-(0)-3-----|
--0g1----------1--L---------2-----|
--0g2----------2--L---------------|
--0g2--------------------------0--|
----0---0-3p-0--------------------|


   wah-wah on
                                        |---3---|
   E          S  S   S  S   S  S  S  S  S   S   S  T   S. S     T    T
-------------12-----12-----12-15-12----12h-15p-12-----------------------|
--15b-----------15b----15b----------15------------15p-12----------------|
---------------------------------------------------------14br-(14)p-12b-|
------------------------------------------------------------------------|
------------------------------------------------------------------------|
------------------------------------------------------------------------|


                    |---3--|
   E.    S  S    S  S   S  S   H
-----------------0-----------------------|
--------14-------x-----------------------|
--14b---14-14pb-14-12b-12S---------------|
-----------------------------------------|
-----------------------------------------|
---------------------------0S-17S--------|


  wah-wah off
                                         |-----3----|
  S           E  S E   E  E  E  E  E     E     E    E  S  S E  E  E  E  S S
-----------------------0--L--0--------|-------------0-------0--L-----0-------|
-----------------------0--L--0--------|-------------0-------0--L--0--0--0----|
-----------------------1--L-----1-----|--2br--(2)p--0-------1--L----------1h-|
-----------------------2--L--------2--|---------------------2--L-------------|
--------------------------------------|--------------------------------------|
--0-----------0--0-3b-----------------|----------------3b-0------------------|


  E     S   S E  E  S S     E   E   E
-----------------0--L-0-----------------|
-----------------0--L-0--------12-------|
--2br--(2)p-0----1--L---11g13--12--12~--|
------------0----2--L--------------12~--|
----------------------------------------|
--------------0-------------------------|


  Q        S S  E  S  S  E    S  S S S
-----------------------------------0-0-|
-----------------------------------0-0-|
--L------------14--L----14~--14----0-0-|
--L------------14--L-14-14~--14-14-----|
-------12g17-0--0--L--0--0~-----14-----|
---------------------------------------|


              |--3-|  |---3---|
   S   S S S  E    S  S   S   S E   S  S  E    S  S
-----------0----------------------------------------|
--15br-L-L-0----------------------------------------|
-------------12b------------------------------14----|
------------------14-14p-12h-14----14-14------14-13-|
-------------------------------------------------13-|
--------------------------------0--------15b--------|


                                 steady glissando.
   S  S  S   S  S  S  E   E      T              T   T  T   T   T  T  T  T  S.
------------------------------------------------------------------------------|
------------------------------------------------------------------------------|
------------------------------------------------------------------------------|
--14-12--------------14~--L---------------------------------------------------|
--14----14S-12-10----14~--L---------------------------------------------------|
------------------12---------12g16S------------14S-11S-8S-(5)S-4S-3S-2S-1S-0--|


                                            |--3--|
  E    S S S  S   S S E  E  E  S S      E   S   S S S  S E  S S S S E  S S
--------------------0-L--------0-0---|-------------------0---------------0-|
--------------------0-L--0--0--0-0---|--L---------0------0----0---0----0---|
--2br--L-0---------------1--1--1-2br-|--L--(2)p-0-0------1--1---1---2------|
---------0------0g2------2--2--2-----|-------------------2-----------------|
---------0---------------------------|-------------------------------------|
-----------3b-L----------------------|--------------3b-0-------------------|


                                              |-3-|
  E  E  E   S S E  E  E  S S    E  S S S S E  S S S S  S S  S E
--0--0--3b--0---0--0-------0-|-----0-----0-0--L---0-----------0---|
--3--5--------0-3--5-----0---|-----0-0-3-0-3--L-0---3p-0-3p-0-0---|
-----------------------------|-----1--------------------------2b--|
----------------------0------|-----2------------------------------|
----------------------0------|------------------------------------|
-----------------------------|--0---------------------------------|


  |----3----|
  S     S   S S S S  S E  S S E   E.     S
----------------0------0--L-0-0---------12-|
----------------0------0--L-0-0--15b~----0-|
--2pbr-(2)p-1-1-1--------------------------|
--------------2----------------------------|
--------------2----------------------------|
------------------3b-0---------------------|


  E  S S S  S E  S S E   E     S   S    E.  S S  S E  E  S  S  E    S   S
-----0-0------0--0-0-0--15b--(15)S-0-|------0------0--L--0-17b-L--(17)S-0-|
-----0-0------0--0-0-0-------------0-|------0------0--L--0-17b-L--(17)S-0-|
--1-----------1--1---1---------------|------1------1--L-------------------|
--2-----------2--2---2---------------|--2----------2--L-------------------|
--2------3p-0------------------------|--2---------------------------------|
--0------3p-0------------------------|--0-----3p-0------------------------|


  E.  S S  S E  S S S S E  S  S    E   E  E    S  S E  E   E   E
------0------0--L-0-0-0-0-------|--5b-----5--3g5p-3-5--3b--0-------|
------0------0--L-0-3-3-3--5p-3-|------5-------------------0-------|
-------------1--L---------------|----------------------------------|
-------------2--L---------------|----------------------------------|
--------3p-0--------------------|----------------------------------|
--0-----3p-0--------------------|-----------------------------12S--|


                                            |--3--|
  E.  S S  S E   S S S  S S  S   E       E  S  S  S E  E  S S E   S S S S
------0------------0-------------0--|----0------------------0-------------|
--------3p-0-3b--L-0-3p-0-3p-0-3g5--|--3g5--0---------------0-------------|
------------------------------------|-------2h-4p-2---------1-------------|
------------------------------------|---------------2-------2-----------2-|
------------------------------------|------------------2--L-------0-1-2---|
--0---------------------------------|------------------0--L---3b----------|


                           |----3---|
  S S S S   E     E  E  E  S    S   S E     E  S S E  S S E  S S E  S S
------------------------0----------------|------------0-0-----------0-0-|
-----------(0)-------0--0-------------0--|------------0-0-----------0-0-|
---------------------1-----2br-(2)p-0-1--|--4--4-4-4--4-4-4--4-4-4--4-4-|
----------------0g2--2----------------0--|--x--x-x-x--x-x-x--x-x-x--x---|
--2-1-0----------------------------------|--5--5-5-5--5-5-5--5-5-5--5---|
--------3b--0----------------------------|------------------------------|


                           |--3--|
  E  S S S S S S E  E  S S S  S  S    S S S S S  S   E  S S E   E  S S
--------------------0--0-0---------|-----------------0--0-0-----0--0-0-|
-----------------------------------|----0-0-0--------0--0-0-----0--0-0-|
--2--2-2-2-2-2-2-2---------4p-2p-0-|----1-1-1------0g1--1-1-2b--0--1-1-|
--x--x-x-x-x-x-x-x-----------------|------2-2------0g2--2-2--------2-2-|
--4--4-4-4-4-4-4-4-----------------|-----------------------------------|
-----------------------------------|--0-------3b-0---------------------|


  S S S S S S S S S S S S S S S S    E  E  E  S S S S E  S S S S
----------3-3---3-3---3-3-3-3-3---|------------------------------|
----3-3---3-3---3-3---3-3-3-3-3-3-|--------4--4------------------|
----2-2---2-2---2-2---2-2-2-2-2-0-|--------3--3------------------|
----------------------------------|--------x--x------------------|
----------------------------------|--3--3--3--3--------------3-0-|
--0-----0-----0-----0-------------|-------------0-0-0-1--2-2-3-0-|


  E  E  E  S S S S S S E  S S    E  S S E  E  E   E   E  S  S
------------------------------|------------0--L---------------|
--------6--6-6-6-6-3-3-3----3-|---------8--8--L---------------|
--------5--5-5-5-5-5-5-5--5---|---------7--7--L---------------|
--------x--x-x-x-x-x-x-x------|---------x--x------------------|
--5--5--5--5-5-5-5-5-5-5------|---------7--7--L---------------|
------------------------------|--0--0-0----------12S--0--3b-0-|


    E.  S E  E  Q    Q
----0-----0--0--0---------|
----0---0-0--0--0---------|
--0g1---1-1--1--1---------|
--0g2-----2--2--2---------|
--------------------------|
--------------------------|


                                      |----3---|
   E    S S  E    E     S  S  S    S  S    S   S  S  S
--12------0----------------------------------------------|
--15br--L-0-15b--15pb~--L-15-15pb-15-15pb-15p-12-12-12---|
-------------------------------------------------14-14pb-|
---------------------------------------------------------|
---------------------------------------------------------|
---------------------------------------------------------|


                                 |-----3-----|
   S     S  S  S  E   E    S  S  S      S    S  E   E
------------------------------0------------------------|
--12-----------------12~---L-12------------------------|
--14pbr-12----12-12--14b~--L----14pbr-(14)p-12-----12--|
-----------14-14-12----------------------------14--12--|
-------------------------------------------------------|
-------------------------------------------------------|


                               |---3---|
   S   S  S  S   E   E    E    S   S   S  E    S  S
---------12-----12--15b--15b--12h-15p-12-12---12-14-|
------12----15b-----15b------------------15b--------|
--14b-----------------------------------------------|
----------------------------------------------------|
----------------------------------------------------|
----------------------------------------------------|


   S  S  S  S  S   S  E   S S E   E    E
--12---------------------------------------|
-----15-14-12-------------------------15b--|
--------------14b-12-----------------------|
---------------------14~----------0--------|
----------------------------------0--------|
--------------------------0-0-0--(0)-------|


   S  E    S  E    S  S  S  S  E    S  S   S  S
--12------12------12-------12------12-----12-12-|
-----15b-----15b-----15b-L----15b-----15b----15-|
------------------------------------------------|
------------------------------------------------|
------------------------------------------------|
------------------------------------------------|


   S  S   S     S  E   E    E.  S E      E
--------------------------------------------|
--12-15b------------------------------------|
---------15pbr-14-12--14b~--L---0-L---------|
-------------------------------------12g14--|
--------------------------------------------|
--------------------------------------------|


                       |--3--|  |--3--|
   S  E.  E   E    E   S  S  S  S  S  S  S  S
----------------------------------------------|
----------------------------------------------|
--12-14---L--12b--14--12----12----12b-L-------|
-------------------------14----14-------14-12-|
----------------------------------------------|
----------------------------------------------|


                   |-3-|
   S  S  S  S  E   S S S  Q      S    S  S  S
--------------------------------12---12-12----|
-----------------------0-15b----15pb-15-12----|
--------------12-------0----------------------|
--14-12-14-14-12------------------------------|
--------14-14---------------------------------|
------------------12-L---------------------12-|


   S  S  S  S  S  E   S  S  S  S  S S  S  S  S
-----------------------------------------------|
-----15-15----15-15-----15-15----15-L----15-15-|
------------------------14-14----13-L----13-13-|
------------------------14-14----14-L----14-14-|
-----------------------------------------------|
--12-------12--------12-------12------12-------|


   S  S  S   S  S  S  S  S  S  S  S  S  S  S  S  S
---------------------------------------------------|
---------------15-15-------15-------15-15----------|
---------------14-15-------15-------15-15----------|
-----12-12b-------------------12-12-------------12-|
-------------------------------x--x----------------|
--12--------12-------12-12----12-12-------12-12----|


   S  E   S  S   S   S  S    S    S  S  S     S  S    S   S
--------------------14-14h-(14)-----------15g17-17h-(17)S-0-|
-----15--15-15-------x--x--------15-15-----------x--------0-|
------x---x--x-(14)-11-11h-(11)S--x--x-14-12g14-14h-(14)S-0-|
--12-12--12-12-------------------12-12--x-------------------|
---x------------12---------------------12-------------------|
--12--------------------------------------------------------|


  E   S  S  S  S  S   S  S  E   S  S   S  S   S
--0--14-14-14-18-18S-17-17-17--17-17S-18-18S-19-|
--0---x--x-----x--x------x--x---x--x------x-----|
--0--11-11-11-15-15S-14-14-14--14-14S-15-15S-16-|
------------------------------------------------|
------------------------------------------------|
------------------------------------------------|


        |--3--|  |---3--|  |--3--|  |---3--|  |--3--|  |---3--|  |--3--|
   S  S S  S  S  S  S   S  S  S  S  S   S  S  S  S  S  S   S  S  S  S  S
--19-19-L-19-19-18-18S-19-19-19-19-18S-19-19-19-19-19-18S-19-19-19-19-19-|
---x--x----x--x--x--x------x--x--x--x------x--x--x--x--x------x--x--x--x-|
--16-16-L-16-16-15-15S-16-16-16-16-15S-16-16-16-16-16-15S-16-16-16-16-16-|
-------------------------------------------------------------------------|
-------------------------------------------------------------------------|
-------------------------------------------------------------------------|


                                  steady glissando.
   |---3--|  |--3-|
   S   S  S  S  S S E   E   Q     S                 T   T   T  T  T  T
--18S-19-19-19-19------19b--L----19S---------------17S-15S-12S-9S-7S-5S-|
---x------x--x--x-0-0---------------------------------------------------|
--15S-16-16-16-16-0-0---------------------------------------------------|
------------------------------------------------------------------------|
------------------------------------------------------------------------|
------------------------------------------------------------------------|


                        wah-wah
                        +       o   +    o    +
                        3       3   |----3----|     3
   E.   S  S    S    E  S       E.  E    E    E     E
--(0)----------------0---------------------------------|
---------------------0--3b------L---3pb--3pb--3pbr--L--|
---------------------x---------------------------------|
-------------------0g2---------------------------------|
----------(3)p-(0)-------------------------------------|
---0----0--3p---0--------------------------------------|


                   bend string behind nut.
                                              1/2
  E.  S S  S E  E  E                       E  S   S
------0---------------------------------------------|
------0------0--L-----------------------------------|
-------------1--L--0br---------------------L--L---L-|
-------------2--L-----------------------------------|
----------------------------------------------------|
--0-----3b-0----------------------------------------|


                                             w/bar            rake
  full      2    1,5 1,25
  Q    Q    Q    S   S    E       E.  S  E   E     S S E  S S S    S
-----------------------------|--------0------0~----L-0----0---0----0-|
-----------------------------|----0---0--0---0~----L---0----0--------|
--L----L----L----L---L----L--|----x-----(x)--1~----L-----------------|
-----------------------------|--0g2-----(x)--2~----L-----------------|
-----------------------------|----------(x)--------------------------|
-----------------------------|----------(3)--------------------------|


    S S S S  S S S   S S E  S S S S S    S S S S  S S S   S S S E   E  E
------0---3b-L-0----------------------|--0-0-0-3b-L-0---3g6-0---3b--0-----|
--3g5---0------0-0------------------0-|--0-5-5--------0-------0--------0--|
-------------------2g3-L-2--0-2-0---1-|-----------------------------------|
--------------------------------0-2---|-----------------------------------|
--------------------------------------|-----------------------------------|
--------------------------------------|-----------------------------------|


    S S S S  S S S  S S S S S   S S S S
------0---3p-0---5p-0---3-0-0-------0-0-|
--3g5---0------0------0---0---3g5-5-5-5-|
----------------------------------------|
----------------------------------------|
----------------------------------------|
----------------------------------------|


              |----| |--3--|   |--3--| |--3--|   |--3--| |--3--|
  S  S S T  T E    S S   S S   S S   S S   S S   S S   S S   S S
--0----0-0----0------0-----0-----0-----0-----0-----0-----0-----0-|
--3S-5---4S-5----3g5---3g5---3g5---3g5---3g5---3g5---3g5---3g5---|
-----------------------------------------------------------------|
-----------------------------------------------------------------|
-----------------------------------------------------------------|
-----------------------------------------------------------------|


                    |--3--| |-3| |--3-|
    S S S   S S   S S  S  S E  S S  S S E    E
------0-0------------------------0----0-0----0--|
--3g5-----3g5-L-3g5-0h-3h-5-L--0-3S-5-0-0--3g5--|
------------------------------------------------|
------------------------------------------------|
------------------------------------------------|
------------------------------------------------|


          |--3-| |--3-|
  S S S S S  S S S  S S S T T T T T T T T T T T T T T
--L---0-0-0----0-0----0-0-0-0-0-0-0-0-0-0-0-0-0-0-0-0-|
--L-0-5-5-3S-5-5-3S-5-5-0-----0-0-0-0-0-0-0-0-0-0-0-0-|
------------------------------------------------------|
------------------------------------------------------|
------------------------------------------------------|
------------------------------------------------------|


                                                       3 3  3    3 3  3
    T.T. T.   T.T. T. T. T. T. T. T. T. T. T.   T.T.   S.T. T.   S.T. T.
--2g3-0------------0------------------------------0------0---------0-----|
---------0--3g5-L-----3S-5--0--0--3S-5--0--0--3g5----3g5----0--3g5----0--|
-------------------------------------------------------------------------|
-------------------------------------------------------------------------|
-------------------------------------------------------------------------|
-------------------------------------------------------------------------|


                      steady glissando.
      |--3-| |-3-|
  S S S  S S S S S E  T                 T  T  T T  T  T T  T  T   T   T   T   T
----3--------0-0-0-0--0-----------------0--0--0-0--0--0-0--0--0---0---0---0---0--|
--5---5p-0-0-0-0-0-0--3-----------------3S-4S-5-5S-6S-7-7S-8S-9S-10S-11S-12S-13--|S
---------------------------------------------------------------------------------|
---------------------------------------------------------------------------------|
---------------------------------------------------------------------------------|
---------------------------------------------------------------------------------|


   S  E.  E   S  S   S   S   S  S S  T T S   T T
-------------12----(12)------------------------0-|
--16b-L---L-----15--12-------------------5S-14---|
------------------------14b-14-12-L----0---------|
------------------------------------14-----------|
-------------------------------------------------|
-------------------------------------------------|


                                                     |----3---|   |---3---|
   Q        E    S S S S  S S S S  E       Q    Q    E   E    E   E   E   E
-----------------0-0-0-3p-0---0---17b--|---L----L----L--17br--L--17--15--17--|
--15b~----(15)S--0-0-0-3p-0-0---0------|-------------------------------------|
---------------------------------------|-------------------------------------|
---------------------------------------|-------------------------------------|
---------------------------------------|-------------------------------------|
---------------------------------------|-------------------------------------|


   |------3-----|  |--3--|  |--3--|   |----3---| |--3-|
   E     E   S  S  S  S  S  S  S  S   S   S    S S S  S  E   E
--17pb--17--15-17-15-15----15-17-17br-L-(17)p-15-0-0-19b-L--17b--|
--17pb------------17----17-----------------------0----0----------|
-----------------------------------------------------------------|
-----------------------------------------------------------------|
-----------------------------------------------------------------|
-----------------------------------------------------------------|


   S  E.    E      E   Q      E    E
--17b-L---(17)S--(12)-------(25)--18b--|
--17b-L---(17)S--(12)------------------|
---------------------------------------|
---------------------------------------|
---------------------------------------|
-------------------0---0---------------|


        |----3----|     |---3---|
   Q    E   E     E     E   E   E   E   S    S
---L----L--18pb--18pb--18--17--15--17--17pb-17-|
---------------------------------------17pb----|
-----------------------------------------------|
-----------------------------------------------|
-----------------------------------------------|
-----------------------------------------------|


                                      |---3--|  |--|   |--3--|
   S  S  S   S  S    S  S  T  T  E    S   S  S  S  E   S  S  S
--15----15h-17-17pb-17-15----15-17b--17p-15----15-----17b-L-17br-|
-----17-------------------17----------------17----17--------17br-|
-----------------------------------------------------------------|
-----------------------------------------------------------------|
-----------------------------------------------------------------|
-----------------------------------------------------------------|


  |----3---|                                                 |--3--|
  S   S    S E   S  E.  Q    E.    S      Q    E  E     Q    E  E  E
--L-(17)p-15-0--17b-L---L----L---(17)S-|------------------------------|
--L-(17)p-15-0-------------------------|------------------------------|
---------------------------------------|----------2brb--L----L--L--L--|
---------------------------------------|------------------------------|
---------------------------------------|------------------------------|
---------------------------------------|--0----0----------------------|


             w/bar    string noise
  E.  S S  S E     E  E             Q
-------------0~----L----------------------|
-------------0~----L----------------------|
----------------------x-------------------|
----------------------x-------------------|
------------------------------------------|
--0---0-3p-0-----------------------12S----|


                   wah-wah
                   +       o   +   o    +
                |-----3----|   3   3    3  3
  E.  S S  S E  E  E       E   E   E.   T  T
-------------0-------------------------------|
-------------0-----5h------5h--5h--5p---3p-0-|
-------------1-------------------------------|
---------------------------------------------|
---------------------------------------------|
--0---0-3p-0----x----------------------------|


                     flip pick-up selector
                     o                     +    o   +
  E.  S E   E  S  E  S                     E    S   S
--0---------0-------------------------------------------|
--5---3-----0-------------------------------------------|
------0--------2b-L--2pb-------------------2pb--2pb-2pb-|
--------------------------------------------------------|
--------------------------------------------------------|
--------3b----------------------------------------------|


    o   +    o   +    o      +
                                                       |-3| |-3|
  S S   E    S   E    S   E  E    E  E     Q    E   E  E  S E  S  E   S  S
----------------------------------------|-----------0--L--0-0--0-----------|
----------------------------------------|-----------0--L--0-0--0-12--------|
--L-2pb-2pb--2pb-2pb--2pb-L--2br--L--L--|----------------------------12----|
----------------------------------------|--2----------------------------14-|
----------------------------------------|--2-------------------------------|
----------------------------------------|--0----3b-------------------------|


                                             \4/
   S  E    T   T  T   T   T   T  S  S  E.  S E   E
-------------------------------------------0--------|
-------------------------------------------0--------|
--12-12~--12h-13-12h-13p-12h-13----12~-L---0-0---L--|
--------------------------------14------------------|
----------------------------------------------------|
----------------------------------------------------|


  \2/   \2/ \2/ \2/ \2/ \2/ \2/
  E.  S S   S   S   S   S   S    E    Q
-------------------------------------------|
--------------------------------15b~--L----|
--0---L-0---0---0---0---0---0--------------|
-------------------------------------------|
-------------------------------------------|
-------------------------------------------|


  Q    E   E    S  S  S  S  S  S  S   S
----------------------------------------|
--L----L--15b--15-12-15-12-14-12--------|
---------------------------------14b----|
-------------------------------------14-|
----------------------------------------|
----------------------------------------|


                  \2/ \2/    \2/                                \2/
   E   E    E.    S   E      E    Q        Q      Q     S   S   E     E   E
---------------------------------------|-------------------(x)----------------|
------12b--15---------------15---------|--15~-----L------------15-----L-------|
------12b--14b---16--16--14g16S---L----|--14b~----L----(0)-----14br---L--14b--|
--14-----------------------------------|--------------------------------------|
---------------------------------------|--------------------------------------|
---------------------------------------|--------------------------------------|


                                   \2/                 \2/
  Q      Q     E   S    S    E     E     E.   S    E   E  Q    E   E
-------(22)----L----------------------|--------------------------------|
----------------------------15--------|---------------15--L----L-------|
--L---------------14pb-14pb-14pb--16--|--L---14br--L--14--L----L--14b--|
--------------------------------------|--------------------------------|
--------------------------------------|--------------------------------|
--------------------------------------|--------------------------------|


     NH         NH     \3/
     Q    E     E  E   E  E  E
--<>16----L---------------------|
-------------<>15--L--15--L--L--|
--------------------------------|
--------------------------------|
--------------------------------|
--------------------------------|


              |--3--|            |--3-|
   T    T  S  S  S  S S S E  E   S  S S  E    E
-----------0-----0--0-L---0--L-------------------|
--15S-(19)-0-12p-9p-0-L-0------------------------|
--------------------------------12p-9-9----------|
--------------------------------12p-9-9----------|
----------------------------------------10b------|
---------------------------------------------12--|


  E   S     T    T  E   E  E   E   S   S  S  S
-----------------------------------------12----|
--------------------------------------------15-|
-----14br-(14)p-12----------------13h-14-------|
-------------------14--14--L--14---------------|
-----------------------------------------------|
-----------------------------------------------|


                              |---3--|
   S  S   S  S  S  S  E   E   S   S  S  S  S  S  S
--12-14p-12-------------------------------12----12-|
------------15-12-------------------12-14----14-12-|
------------------12-12~--L--12h-13----------------|
---------------------------------------------------|
---------------------------------------------------|
---------------------------------------------------|


                              |---3--|
   S  S  S  S  S  S  E    E   S   S  S  S  S  S  S
---------------------------------------------------|
-----12-------------------0---------12-14-12-15-12-|
--14-12-------14-14-12p~--0--12S-13----------------|
--------14-14--------------------------------------|
---------------------------------------------------|
---------------------------------------------------|


         |---3--|  |---6--|  |---6---|  |---6---|   |---6--|   |---6--|   |---6-
   S  S  S  S   S  S   S  S  S   S   S  S   S   S   S  S   S   S   S  S   S   S
---------------------------------------------------------------------------------|
--14-12-15-15p-12-14p-12----12h-14p-12-15p-12h-14p-12-15p-12h-14p-12-15p-12h-14--|p
-------------------------15------------------------------------------------------|
---------------------------------------------------------------------------------|
---------------------------------------------------------------------------------|
---------------------------------------------------------------------------------|


   |---6---|   |---6--|   |---6--|   |---6---|  |---3---|
   S   S   S   S  S   S   S   S  S   S   S   S  S   S   S   E   E  E
----------------------------------------------------------------------|
--15p-12h-14p-12-15p-12h-14p-12-15p-12h-14p-12-15p-12h-15p-12--15--0--|
----------------------------------------------------------------------|
----------------------------------------------------------------------|
----------------------------------------------------------------------|
----------------------------------------------------------------------|


      |-----3-----|      |---3--|     3    3  3  3  |------|  3
      E   E   S   S  E   S   S  S     E.   S. S. S. E      S  S.
---------12--14S-15-12---------12-14g15---12-------12--14g15-12-|
--12g13-----------------14S-15---------------13-14--------------|
----------------------------------------------------------------|
----------------------------------------------------------------|
----------------------------------------------------------------|
----------------------------------------------------------------|


   3   3  3  3   3  3                               |---6--|   |---6--|
   S.  S. S. S.  S. S. T   T  T   T  S   S  S   S   S  S   S   S  S   S
---------12-14S-15-12-14S-15-12h-14-14p-12-15p-14p-12--------------------|
--13S-14----------------------------------------------15p-14p-12---------|
-----------------------------------------------------------------15p-14h-|
-------------------------------------------------------------------------|
-------------------------------------------------------------------------|
-------------------------------------------------------------------------|


                 |---6---|  |---6---|  |---6---|  |---6--|  |---3---|
   S  S   S   S  S   S   S  S   S   S  S   S   S  S   S  S  S   S   S  T   S  T
-----15p-14p-12-----------------------15p-14p-12-----------------------------12--|h
----------------15p-14p-12-----------------------15p-14p-0------------12h-15-----|
--12-----------------------15p-14p-12----------------------12h-14h-15------------|
---------------------------------------------------------------------------------|
---------------------------------------------------------------------------------|
---------------------------------------------------------------------------------|


                     |---3---|           |---3---|  |--3-|
   E   S   S   S  S  S   S   S  E    S   T   T   T  S  S S     S   S
--15--12h-14p-12----12h-15p-12-15b--15--12h-15p-12----12-L-----------|
-----------------14--------------------------------15------14g16S-17-|
------------------------------------(0)------------------------------|
---------------------------------------------------------------------|
---------------------------------------------------------------------|
---------------------------------------------------------------------|


                                3   3   3  3   3     3   3
   S  E   S    S  T   T   S  S  T.  T.  T. T.  T.    S.  T.  S   S   S   S
--15-17--17pbr-L-15h-17p-15----15h-17p-15-14h-15-14g12h-14p-12S-10h-12p-10-|
----------------------------17---------------------------------------------|
---------------------------------------------------------------------------|
---------------------------------------------------------------------------|
---------------------------------------------------------------------------|
---------------------------------------------------------------------------|


                                                             fdbk.
                                                                      \3/
    |---3---|
    S   S   S  T   T   T  T  Q     Q     Q        H          Q.       E
--(10)-----------------------------------------|-----------(28)----------|
---10h-12p-10-12h-14p-12----12----------15-----|--L----------------------|
----0--------------------14-------------14b----|--L------------------16--|
-----------------------------------------------|-------------------------|
-----------------------------------------------|-------------------------|
----------------------------------12-----------|-------------------------|


                          fdbk.
  Q.       E     E   E    Q
------------------------(29)----|
----------------12--------------|
--L------(14)p--12--------------|
--------------------14----------|
--------------------14----------|
---------------------0----------|


   fdbk.
   \0/      \0/    \0/ \0/   \0/ \0/ \0/ \0/ \0/
   S    E   S  E   S   S  S  S   E   S   E   S     Q    S  E.  E  S S  S S S S
---L--------------------------------------------|-----------------0----0-3-0---|
--15----L--15--L--15--15--L-15--15--15--15--15--|--L----3b-L---L----3b-------0-|
------------------------------------------------|------------------------------|
------------------------------------------------|------------------------------|
------------------------------------------------|------------------------------|
------------------------------------------------|------------------------------|


                                                                 |---3---|
    S  S  S S S E  S   S E.     Q       Q    E.  S   E   S    S  E  E  S S
----------0-3-L-5--5pb---5pbr---L----|--L----L---5br-L--(5)p--3--5--3------|
--3g5~-5~-0--------------------------|---------------------------------5-3-|
-------------------------------------|-----------------------(0)-----------|
-------------------------------------|-------------------------------------|
-------------------------------------|-------------------------------------|
-------------------------------------|-------------------------------------|


  S E  S E   S   S S S S  S S  S S   S      S S S S S S  S S E  E   Q
---------3b--3pb-5-L-5-5b-L-5b-L-5pb-5pb-|--5-3--------------0-----------|
--5-5--5-----------------------------5pb-|------5-3--------0-0-----------|
-----------------------------------------|----------4-4S-2-0-0--2b--L----|
-----------------------------------------|-------------------------------|
-----------------------------------------|-------------------------------|
-----------------------------------------|-------------------------------|


                                 |--3-|
  E  S S S S  T  T S S  E  S  E  S  S S
--0----0-L-------0----------------------|
--0--3-0-L-------0----------------------|
--0--------2b-2p-0---------2b-L--2p-0---|
-------------------2-0h-2-------------2-|
----------------------------------------|
----------------------------------------|


                          |-3-| 3 3 3   3
  E   S S S   S E     S S S S S S S E.  S    E.   S E   E    E  S S E  E
--------0-------------------------------0-|-------0-------------0---0-------|
------3---------------------------------0-|---------3b--3pb--L----3-0--3br--|
--2b------2br-L-0brb--L-L-L-L-L-L-L-L---0-|--2b---------3pb--L--------------|
----------------------------------------0-|---------------------------------|
------------------------------------------|---------------------------------|
------------------------------------------|---------------------------------|


  |----3----|                                             |-3-|
  Q    Q    Q     Q.      E      E   S S S  S S S E  S S  S S S  S S
------------------------------|------0-0------------------0-L--------|
--L----L----------------------|------0-0------5-3-5--5-5p-3-L--------|
------------0~----L-----------|--2b------2S-4-----------------4S-2-0-|
------------------------------|--------------------------------------|
------------------------------|--------------------------------------|
-------------------------(1)--|--------------------------------------|


  E   E  E  E     Q      Q          E     E   H.
-----------------------(25)----|--(24)--(25)--L------------|
-------------------------------|---------------------------|
--2b--0--0--0brb--L------------|---------------------------|
-------------------------------|---------------------------|
-------------------------------|---------------------------|
-------------------------------|---------------------------|


  E  S S S S S S E  S S E.   S    E  E  E     E  E  E  E  E
-------------------------------|--------------------0--0--0--|
-------------------------------|--------------------0--0--0--|
-------------------------------|--------------------1--1--1--|
-------------2-----------------|------------0g2--L-----------|
-------0-1-2--------x-0--------|--2--------------------------|
--0--3---------0-L------3b---L-|--0--0--3b-------------------|


                                                       |-3-| |-3-|
  S S S S E  E  S S E  S S S S    S E  S E  S S E  S S S S S S S S
--3-3-3-3-3--3--L-3-3--3-3-3-0-|--3-3--3-L--3-3-3--3-3-3-3-3-3-3-3-|
--3-3-3-3-3--3--L-3-3--3-3-3-0-|--3-3--3-L--3-3-3--3-3-3-3-3-3-3-3-|
-------------------------------|-----------------------------------|
-------------------------------|-----------------------------------|
-------------------------------|-----------------------------------|
-------------------------------|-----------------------------------|


  S E  S E  S S S S S S S S S S    E.  T T S S E  E.  S E  E
--3-3--3-3--3-3-L-3-3-3-3-3-3-3-|--3---3-3-0-3-0--3---3-L--3--|
--3-3--3-3--3-3-L-3-3-3-3-3-3-3-|--3---3-3-0-3-0--3---3-L--3--|
--------------------------------|-----------------------------|
--------------------------------|-----------------------------|
--------------------------------|-----------------------------|
--------------------------------|-----------------------------|


  E.   S E  E  T  T  T  T  T  T  T  T  T  T  T   T   T   T   T   T
--3S---5-5--3--3S-3S-4S-4S-5S-5S-6S-6S-7S-8S-9S-10S-11S-12S-13S-13S-|
--3S---5-5--3--3S-3S-4S-4S-5S-5S-6S-6S-7S-8S-9S-10S-11S-12S-13S-----|
---------0------------------------------------------------------13S-|
---------0----------------------------------------------------------|
--------------------------------------------------------------------|
--------------------------------------------------------------------|


   T  T  T   T   T  T  T  T  T  T  T  T  T  T  T  T  T  T  T  T  T  T  T  T  T
--14-14-14S-15S-16-16-16-16-16-16-16-16-16-16-16-16-16-16-16-16-16-16-16-16-16-1-|
----------------------------15-15-15-15-15-15-15-15-15-15-15-15-15-15-15-15-15-1-|
--14-14-14S-15S-16-16-16-16-16-16-16-16-16-16-16-16-16-16-16-16-16-16-16-16-16-1-|
---------------------------------------------------------------------------------|
---------------------------------------------------------------------------------|
---------------------------------------------------------------------------------|


   |---3--|  |--3--|  |--3--|  |--3--|
   S   S  S  S  S  S  S  S  S  S  S  S  S.  T   T  T   T   T   T   T   T   T   T
--15S-16-16-16-16-16-16-16-16-16-16-16-16S-12S-19-18S-17S-16S-15S-14S-13S-12S-11-|
--14S-15-15-15-15-15-15-15-15-15-15-15-15S-12S-19-18S-17S-16S-15S-14S-13S-12S-11-|
--15S-16-16-16-16-16-16-16-16-16-16-16-16S-12S-19-18S-17S-16S-15S-14S-13S-12S-11-|
---------------------------------------------------------------------------------|
---------------------------------------------------------------------------------|
---------------------------------------------------------------------------------|


  E.  S E  E  S S S S S S   E
------0----0--0-0-0-0-0-0------|
------0-0--0--0-0-0-0-0-0------|
------0-0--1--1-1-1-1-1-1------|
--------0--2--2-2-2-2-2-2S-14--|
--------x----------------------|
--0-----3----------------------|


               |---3---|
   S  S  S  S  S   S   S E  S S S  S  S   S  S  S
---------------------------------------------------|
--------------------------------------------15-17b-|
--12-12-12-12---------------------12-12S-16--------|
--14-12-14-12---------------------12-12------------|
--------------14S-12p-10-----------0--0------------|
-------------------------0--L-0-0------------------|


  Q     S  S  S  S  S  S  S  S  S  S  S S
------------------------------------------|
--L----15-17----15------------------------|
-------------16----14-16-12----12-14b-L-L-|
----------------------------14------------|
------------------------------------------|
------------------------------------------|


  Q    E   E  E   S    S  S  S  E
-------------------------------------|
----------15--L----------------------|
--L----L---L--L--14pbr-L-12-14-12b~--|
-------------------------------------|
-------------------------------------|
-------------------------------------|


  E  S S  S   S  E   S  S  S  S  S   S  S   S
----------------------------------------------|
----------------------------------------------|
----------------------------------------------|
-------------14-14~--L-12-14-12---------------|
--------------------------------14S-12-10b----|
--0--0-0-15b-------------------------------12-|


                      |---3---|   |----3---|
      E.   S  E    E  E   E   E   E   E    E
----------------------------------------------|
----------------------------------------------|
----------------------------------------------|
--12g14---12------14--L--14--14--14-----------|
------0------------0--L--14--14--14--12b--14--|
------0------15b------------------------------|


   E      S    S   E       E   S  S E  E  E
---0-----------------------------------------|
---0-----------------------------------------|
--14br--(14)p-12b----------------------------|
-----------------------12g14--14-14----------|
-----------------------12g14--14-14----------|
------------------15b---------------0--0--0--|


   E    S  S  S   S  E  S  E   S  E  E      E    E  E  E  E  E  E  E
----------------------------------------|--12---12--L-----------------|
----------------------------------------|--12---12--L-----------------|
--14b--14-12----------------------------|--14b--14--L-----------------|
-------12-12-----14---------------------|-----------------------------|
----------------------------------------|-----------------------------|
-------------15b----12--L-12--12-12--0--|--------------0--0--0--0--0--|


   E    S  S  S   S E  H           E  E  E  E  E  E  E  E
--12---12-----------------------|--------------------------|
--12---12-12--------------------|--------------------------|
--14b--14-12--------------------|--------------------------|
----------12-----14-------------|--------------------------|
-----------------14-------------|-----0--0--0--L--0--0--0--|
-------------15b----0--L--------|--L--0--0--0--L--0--0--0--|


   E.   S  E    E  S  S  E  Q
---------------------------------|
---------------------------------|
---------------------------------|
--14---12------14--L-14-14--L----|
---------------14--L-14-14--L----|
---0------15b---0--L-------------|


   E.   S  E    T   T   T   T   T   T   T   T   T   T   T   T E  E
--------------------------------------------------------------------|
--------------------------------------------------------------------|
--------------------------------------------------------------------|
--14---12------12h-14p-12h-14p-12h-14p-12h-14p-12h-14p-12h-14-------|
--------------------------------------------------------------x--x--|
----------15b-------------------------------------------------x--x--|


  E     S   S S S E  S S S S E  E     E    S S S  S  E  E  E  E  E
-----------------------------------|--------------------------------|
-----------------------------------|--------------------------------|
--2br--(2)p-0----------------------|--2br--L-0-------1--L-----------|
------------------2--L---2---2-----|---------0---(0)-2--L-----------|
-----------------------2---2-2--2--|--------------------------------|
--------------4-x---------------0--|-----------3-----------0--0--0--|


  E     S    S  S  S  E  E  E  E  E     Q     E   E  S S     S  S  E   E
-------------------------------------|-------------------------18----------|
-------------------------------------|-------------------16g18-18----------|
--2br--(2)p-(0)-------1--L-----------|--2b----2b--0--L---------------------|
-------------0----(0)-2--L-----------|-----------------2-------------------|
----------------4--------------2--2--|-------------------------------------|
----------------4-----------0--0--0--|----------------------------17S--6S--|


                                                    |--3-|
  S E  S E   E      E   E     E    E      E  S S E  S  S S S S   S S S S S S
----------------16g18--------14S--(8)--|-------------------------------------|
-----------------------------14S--(8)--|-------------------------------------|
-------------1---------------14S--(8)--|-----------------0-L-----------------|
----2--2-----2-------------------------|--2----2-2--0h-2-----0-0g2-2-2-2-2-2-|
-----------------------19S--(10)-------|--2------2---------------------------|
--0------3b------------19S--(10)--12S--|--0------0---------------------------|


    S  S  S S E     S  S S    S S S E  E
------------------------------------------|
------------------------------------------|
---------------------------------------1--|
--0g2p-0h-2-2-----0g2p-0--------2-2----2--|
-------------------------0h-1g2-----------|
--------------3b--------------------0-----|


  T  T  T  T S S E     E  E  E  E  E
--------------------------------------|
--------------------------------------|
--------------------------------------|
--0h-2p-0h-2-2-2-----0g2--L-----------|
-----------------------------2--------|
-----------------3b----------0--0--0--|


     Spoken :   Before we leave, I just have to name the group one
                |--------------------------3-------------------------|
  E  S        S S                                                  S S E  S E
---------------------------------------------------------------------------------|
---------------------------------------------------------------------------------|
---------------------------------------------------------------------------------|
-----2--------2--------------------------------------------------------2----2----|
---------------------------------------------------------------------------------|
--0-------------3b-------------------------------------------------L-0----0------|(


    more time. This's the first li'l gig 'n we'd like                       to s
    E                                               S S E     E  E  E  E.  T
--------------------------------------------------------------------------------|
--------------------------------------------------------------------------------|
--------------------------------------------------------------------------------|
--0g2-------------------------------------------------------0g2--L--2--2--------|
--------------------------------------------------------------------------------|
----------------------------------------------------0-0-3b-----------------x----|


       you very much for comin' up' n' lettin' us
  E                                               E  E     E  E  E  Q
-------------------------------------------------------------------------|
-------------------------------------------------------------------------|
-------------------------------------------------------------------------|
--2------------------------------------------------------0g2--L-----2----|
---------------------------------------------------------0g2--L--2--2----|
--------------------------------------------------0--3b------------------|


       mess with your ears and your hearts.
  E                                         S S S  S E  S S S S S S S  S
-------------------------------------------------------------------------|
----------------------------------------------------------0-0-0-0--------|
----------------------------------------------------------1-1-1-1--------|
--------------------------------------------0-2------2--L-2-2-2-2--------|
---------------------------------------------------0------2-2-2---2----0-|
--3b--------------------------------------------3b-0----------------3b-0-|


                        An' the name
  E  S S E     E  E  E  E.           S
----------------------------------------|
----------------------------------------|
----------------------------------------|
--2----------0g2--------2---------------|
-----2-2--------------------------------|
-----0-0-3b-------0--0---------------3b-|


  of the group is the Sun an' Rainbows.                        Yeah,
  E                                     E  S S  E  S S S S S S E
---------------------------------------------------------------------|
---------------------------------------------------------------------|
-------------------------------------------------------4-4-4---------|
--2---------------------------------------------2--L---2-2-2-2-------|
-------------------------------------------------------------2-------|
----------------------------------------0--L-3b------0---------3b----|


  you can call it, a-heh, heh, Band of Gypsys,                              anyt
  E                                            S S S S E  S E  S E  S  S
--------------------------------------------------------------------------------|
--------------------------------------------------------------------------------|
--------------------------------------------------------------------------------|
--2------------------------------------------------2---2--L----2-2--------------|
-----------------------------------------------2-2---2------2--2-2--x-----------|
----------------------------------------------------------0---------x-(1)-------|


                                           |--3--|  |--3--|
   E.   S E     E  Q    E  E      E  E  E  S  S  S  S  S  S E  E  S  S
-------------------------------|---------------------------------------|
-------------------------------|---------------------------------------|
--(1)----------------------2b--|--0--2--0------------------------------|
---2----2-----0g2--------------|-----------0h-2p-0h-2p-0h-2------------|
-------------------------------|---------------------------------------|
----------3b-------0----0------|----------------------------0--L--3p-0-|


  Lemme call' em again, the cat with the purple
  S                                             E.  E     E  E   E    E    E
-------------------------------------------------------------------------------|
-------------------------------------------------------------------------------|
-------------------------------------------------------------------------------|
--2-----------------------------------------------------0g2-----(2)--(2)--(2)--|
-------------------------------------------------------------------------------|
------------------------------------------------0---3b-------------------------|


    pants on playin' congas over there, that's Juma,
    E.                                             S E     E  E.  S E     E
-----------------------------------------------------------------------------|
------------------------------------------------------------------0----------|
------------------------------------------------------------------1----------|
--0g2----------------------------------------------2-----0g2------2-----0g2--|
------------------------------------------------------------------------0g2--|
-----------------------------------------------------3b-------0-----3b-------|


   then we have Larry Lee with the head scarf around
  E.                                                 S S  S E    E  E  S  S E
-------------------------------------------------------------------------------|
-------------------------------------------------------------------------------|
------------------------------------------------------------2--0g1-------------|
-----------------------------------------------------2------2--0g2--2-------2--|
-------------------------------------------------------------------------------|
--0----------------------------------------------------3b-0------------3b-0----|


  his face,                               an'
  E.         S  E     E  S  S   S   S  E  E
---------------------------(0)-(0)-(0)-0------|
---------------------------(0)-(0)-(0)-0------|
------------(1)------------(1)-(1)-(1)-1------|
-------------2------0g2--L--------------------|
--2-------------------------------------------|
--0-------------3b------------------------0---|


  we got, an' we got Billy               Cox playin' bass over there,
  E                        S S S  S E  S E                            S S  S E
--------------------------------------------------------------------------------|
--------------------------------------------------------------------------------|
--1------------------------1-1--------------------------------------------------|
--2------------------------2-2------2----2-----------------------------------2--|
---------------------------------------2-2----------------------------2---------|
-------------------------------3b-0----0--------------------------------3b-0----|


                           (and) Mitch
  S E  S S  S   E  S S S S E           S  S
--------------------------------------------|
----0--0------------------------------------|
----1--1------------------------------------|
--2-----------0g2----2---2-------------0h-2-|
-------------------2---2---------------0h-2-|
---------3b-0--------------3b---------------|


  Mitchell,            then we have, ah
  E         S S S  S   E              E  E  E   S S
-----------------------------------------------------|
-----------------------------------------------------|
--1---------1-1--------------------------------------|
--2---------2-2------0g2--------------L-----------0h-|
--2----------------0------------------------3b--L----|
----------------3b-0---------------------0--3b--L----|


  Jerry Velez.
  E            S S E     E  S S S S E   S S    E.  S S  S E  H
--------------------------------------------|-------------------------|
--------------------------------------------|-------------------------|
-----------------------0g1--L-------------0-|--1----------------------|
--2--------------------0g2--L-2---------0-0-|--2---2------2--L--------|
-------------------2b-------------------0---|-------------------------|
---------------0-0-3b-----------0-0-3b------|--------3b-0-------------|


                                           |--3--|  |--3-|
  E.  S E     E  E  E  E  E     S S S S E  S  S  S  S  S S E  E    E
-----------------------------|--x-x-x-x-x-----------------------------|
-----------------------------|--x-x-x-x-x-----------------------------|
------------0g1--L-----------|--x-x-x-x-x-----------------------------|
------------0g2--L-----------|-------------0h-2p-0h-2p-0---2--0--0g2--|
------2-------------2--2--2--|---------------------------2-2----------|
--0-----3b----------0--0--0--|----------------------------------------|


                 |--3--|
  Q    E  E  S S S  S  S  T  T T  T E      E.   S E  S S S S E  E    E
----------------------------------------|-------------------------------|
----------------------------------------|-------------------------------|
----------------------------------------|------------0------------------|
--L----L--2----2-0h-2p-0h-2p-0----------|-------2----0-2---2----0--0g2--|
-------------------------------2p-0-----|---------0----------2----------|
------------------------------------3b--|--4b---------------------------|


  S S S S E   E  S S S S E  S S    S S S S E   S S S S S S E  S  S
--------------------------------|----------------------------------|
--------------------------------|----------------------------------|
--------------0-----------------|----------------------------------|
--L-----------0-----------------|----------5b--------------0--5h-7-|
--------------------------------|--5-7-7-7-----5-7---5-7-7----5h-7-|
----0-0-0-3b-----x-x-x-x-x--x-x-|----------------------0-----------|


  E  E  E     E  E  E  E  S S    E.   S E.  S E  E     E   E
------------------------------|--------------------------------|
------------------------------|--------------------------------|
-----1------------------------|--------------------------------|
-----2------xgx-----2--2------|-------2--------------0g2--(1)--|
-----2------0g2--L-----2----2-|---------0---1-L----------------|
--0-----3b----------------3---|--3b--------------3b------------|


                                                           |--3-|  |--3-|
  E.  S S S S S E  E   S S E       S  S S S E    E  S S E  S  S S  S S  S
----------------5--3b------0--|----0--------------------------------------|
----------0-0-0--------5-3-5--|--3g5p-3-----------------------------------|
------------------------------|---------4-0-------------1-----------------|
------2-----------------------|----------------0g2--L-2-2--2p-0-----------|
------------------------------|-------------2--0g2--L-2-2-------2p-0------|
--0---------------------------|-------------0------------------------3p-0-|


  E  S S E     E  S S E  S  S  S S    E  S S S  S E      S S S S S  S    S  S
----------------------0--0-------0-|--------------0--12g17---------17S-(12)---|
----------------------0----------3-|--------------0--12g17-0-0-0-0-17S-(12)---|
----------------------1--2h-3h-4-0-|-------1---------------0-0-0-0------------|
--2----------0g2-----------------0-|--2----2---------------0-0-0-0------------|
------------------2-2--------------|--2---------------------------------------|
-----0-0-3b------------------------|--0--0---3b-0------------------------0--0-|


                       |--3--|
  E  S S S  S   S  S   E  E  E  E    E      S  S  S  S E    E  E  S  S S S S S
----------------------------------------|--------------------------------------|
----------------------------------------|----------------------------------0-0-|
--------------0g2p-0-0g2-----0----------|----------------------------------0-0-|
--------------------------0--0----------|--14----14-14----0g2----------2---0-0-|
-------0------------------0-----0-------|--------------------------------------|
--0--0---3p-0-------------------0S--15--|-----15-------0-------0--3b-0---3-----|


  S S S S S  S S S  S  S  S  S  S  S  S S
----0-0-0-------------------11-11---------|
--0-0-0-0----0--------------11-11-------0-|
--0-1-1-1----0---0S-9-------------------0-|
--0------------2-0--------------------0-0-|
---------------2------10-10-------10-10---|
----------3b------------------------------|


  S  S  S  S   S  S  S   S  S  S   S  S  S   S   S S
-----------------------------------------------------|
-----------------------------------------------------|
---------------------------------------------------0-|
----14-14-----14-14-----14-14-----14-14-----14S-12---|
-----------------------------------------------------|
--x-------15b-------15b-------15b-------15b----------|


   S  S  S  S  S  S  S  S  S  S  S  S   S  S     E
----------------------------------------------------|
----------------------------------------------------|
-----12----12-13-12---------------------------------|
--12-12----12--0-12-12-12----12-12-----12-12-12g14--|
--------15----------12-12-15-12-12-----12-12--------|
--------------------------15-------15b--------------|


  E   S  S  S  S  S  S  S  S  S  S  S  S  E
---------------------------------------------|
---------------------------------------------|
---------------------------------------------|
-----14-14-12b-L-14-14-12b-L-14----12b-L-14--|
------------0-------------------14-----------|
--0------------------------------------------|


                3  3    3   3
   S  S  S   S  S  E.   S   S  S E.  Q
------------------------------------------|
------------------15----------------------|
------------------15---14p-12-------------|
--12--------------------------14----------|
-----13-12p-10-10-------------------------|
---------------12----------------0---L----|


   S   E   S E   S  S S  S    E       E   S  S
-----------------------------------------------|
-----------------------------------------------|
----------------12-----------------------------|
--12h-14--14----12-14-L-14p-(12)--12g14-----12-|
--12h-14--14-------14-L-14p--12---12g12--12----|
-------------0---------------------------------|


      E  S  S  E       E  Q    Q       E   E   E  E      Q     Q
------------------------------------|-------------------------------|
------------------------------------|-------------------------------|
------------------------------------|-------------------------------|
--12g14----12------12g14--L---------|-----14--14-----12g14----14----|
------------------------------------|-----14--14-----12g14----14----|
---------0----15b------0--L----0----|--0----------0-----------------|


      E  S S E      E  E  E  E   S  S     E.     S E   E   S  S  E   E   S  S
--------------------------------------|---------------------------------------|
--------------------------------------|---------------------------------------|
--------------------------------------|--12b~-------------12-12---------------|
--12g14---------12g14--L--------14-14-|--12b~---14-L--12--12-12-14--14--14-14-|
--12g14---------12g14--L--------14-14-|---------14-L--12----------------------|
---------0-0-0------------0--0--------|---------------------------------------|


   E.   S E    E   S S  E   E  S S    E.  S E   E  S S S S S S S S
--------0-L------------------------|---------------------0-0-----0-|
-------------3g5~--L-5p-3b---------|---------------------0-0-0-0---|
--12~-----------------------4------|-------------------------------|
---------------------------------0-|------------2--L-2-------------|
---------------------------------0-|-------------------------------|
-----------------------------------|--0---0-3b---------0-----------|


   S   S  E   E   E     E   T    T S  E       E
---------12--------------------------------------|
-------------15--15pb~--L--15pbr-L---------------|
--12h-13-----------------------------------------|
------------------------------------------12g14--|
-------------------------------------------------|
-----------------------------------0-15b---------|


                                         |--3--|
  E   E    S    S  E     S   S  E    E   S  S  S
-------------------------------------------------|
-----15b-----------------------------------------|
----------15pbr-L-12b--(12)p-0-------------------|
------------------------------------12-----------|
-------------------------------------------------|
--0----------------------------15b------15b-L-12-|


   S  E   S  E      E  Q     E  E
-----------------------0-----------|
-----------------------------------|
-------------0---------------------|
--12b-L--12b----12g14--L----14-----|
----------------12g14--L----14-----|
--------------------0--L--------0--|


   E   S   S   S   S  E   S  S  S  S  E  E     E  E  E  E  E  E  E  S S
--------------------------------------------|---------------------------|
--------------------------------------------|---------------------------|
--------------------------------------------|-----4--L--4--4--4--4--4-4-|
--14--14-(14)--------14--14-14-14-14-14-----|-----------x--x--x--x--x-x-|
----------14--------------------------------|--5--------5--5--5--5--5-5-|
--------------15b-12------------------------|---------------------------|


  E  S S S S S S S S S S E  E       E.  S S  S   E  E  E  E   E
-------------------------------|----0---0--------------5--3b------|
-------------------------------|----0---0---------------------5S--|
--2--2-2-2-2-2-2-2-2-2-2-2--2--|--2g4-----------------------------|
--x--x-x-x-x-x-x-x-x-x-x-x--x--|---------------0g2--L-------------|
--4--4-4-4-4-4-4-4-4-4-4-4--4--|----------------------------------|
-------------------------------|----------3p-0--------------------|


  S E  S E  S S  E    S  S S S E     E  S S S S S S E  E  E  E
---------0----0-------0--0-0-0-0--|-----------------------------|
----8----8----8-------8--8-8-8-8--|-----4-4-L---4-4-------------|
----7----7----7-------7--7-7-7-7--|-----3-3-L---3-3-------------|
----------------------------------|-----------------------------|
----------------------------------|--3--------3-----------------|
--0----0----0---12S--(0)----------|-----------------0--1--2--3--|


  E  S S S S S S E  S S E  S S    S  S S S   Q    S S S  S   E  S S
-------------------------------|---------0---0----L-----------------|
---------6-6-6-6---------------|---------0---0----L-----------------|
---------5-5-5-5-5------5----0-|-------------x------------------1---|
-----------------4------4--0-0-|-----------0g2----L-2------0g2----2-|
--5----5---------5----5-5--0---|------------------------------------|
-----5--------------5----------|--3b-0-0--------------3p-0----------|


           |--3-|
  S  S S S S  S S S S S   S  S S E  S S
--------------------------------------0-|
-----------2p-0-0-2-0-2S-(4)-0-0-0--0-0-|
---------1-2p-0-0-2-0-2S-(4)-0-0-0--0-0-|
--2b-0-2--------------------------------|
----------------------------------------|
----------------------------------------|


   S  E   S    E.    S  E   E    S    S    S    S
----------------------------------------------------|
--15b-L--15pb-15b---15b-L--15b--15pb-15pb-15pb-15br-|
--------------------15b-L---------------------------|
----------------------------------------------------|
----------------------------------------------------|
----------------------------------------------------|


  |---3--|   |---3--|        |---3--|  |---3--|         |--3-|
  E  E   E   S   S  S  S  S  S   S  S  S   S  S  S   S  S  S S
-------------------12-12-----------12--------------------------|
--L--L--12--12h-15----15-12-12h-15----15p-12-------------------|
---------------------------------------------14-14b-14-12------|
----------------------------------------------------------14-L-|
---------------------------------------------------------------|
---------------------------------------------------------------|


   E.     S  S   S  E    S  S  S  S  S   S  S   S
--------------------------------------------------|
--12b~---12---------------------------------------|
--12b~---12---------------------------------------|
-------------------14p~--L-12-14-12---------------|
------------------------------------14S-12-10b----|
------------15b-12-----------------------------12-|


   E.    S  S  S  E   S S   S   S  S  S  E
----------------------------------12-15b-L--|
------------------------0------12-12-15b-L--|
------------------------0S-14b--------------|
--14~---12-------14--14-0-------------------|
--------------------------------------------|
-----------15-12----------------------------|


  Q.      S  S  S  S  S  S  S   S  E
--L------15b-L-15-12-15-12--------15b--|
---------------------------12--12------|
---------------------------14b---------|
---------------------------------------|
---------------------------------------|
---------------------------------------|


   Q     S.  T    T    E    S  E     X   X  E   E
--15b----L--15pb-15pb-15pb--L-15pb--12h-15p-2-------|
-----------------------------------------------15b--|
----------------------------------------------------|
----------------------------------------------------|
----------------------------------------------------|
----------------------------------------------------|


                       |-3-|     |----3---|
   E.      S     E  E  S S S E   E    E   E
----------(0)--------------------------------|
--15pb~----0--------------------15br--L------|
-----------0--------9--9-9-L-9-----------14--|
--------------------9--9-9-L-9---------------|
--------------9g11---------------------------|
---------------------------------------------|


   3  3       3    3             3  3       3    3
   S  E.      S    S  E  E  Q    S  E.      S    S
-----------------------------------17br---(17)p-15-|
--15-----------------------------------------------|
-----14br---(14)p-12-------------------------------|
---------------------14----------------------------|
---------------------------------------------------|
-------------------------0--L----L-----------------|


             |---3--|  |---3--|   |---3--|  |---3--|   |----3----|
   S   E  S  S   S  S  S   S  S   S   S  S  S   S  S   E   E     E
----------0-17p-15p-0--------15h-17p-15p-0--------15h-17--17pbr--L--|
--15h-17--------------15h-17---------------15h-17-------------------|
--------------------------------------------------------------------|
--------------------------------------------------------------------|
--------------------------------------------------------------------|
--------------------------------------------------------------------|


  Q     S   S   S  S  S  S  S   S   E.   T   T
--L----15h-17p-15----15-17-17b-17p-15---14h-15h-|
------------------17-------17b------------------|
------------------------------------------------|
------------------------------------------------|
------------------------------------------------|
------------------------------------------------|


                  |---3---|    |---3---|
   E.   S  Q      E   E   E    E   E   E
--14-------------14--15--15b--15--14--15--|
-------15-15~-----------------------------|
------------------------------------------|
------------------------------------------|
------------------------------------------|
------------------------------------------|


            |---3---|
   E.    S  E   E   E    Q     E.   S
--15b---15-14--15--17b~--L----15b---L-|
--------------------------------------|
--------------------------------------|
--------------------------------------|
--------------------------------------|
--------------------------------------|


                             |------3------|
   E.    S  E   E   E    E   E       E     E
------------------------17--17pbr--(17)p--15h--|
--17~---15-17b--L--17b-------------------------|
-----------------------------------------------|
-----------------------------------------------|
-----------------------------------------------|
-----------------------------------------------|


   S   S  E    S   S  S  S E   Q      S   S
--17p-15------15h-16-17-------17br----L-(17)h-|
---------17b------------17--------------------|
----------------------------------------------|
-------------------------0--------------------|
----------------------------------------------|
----------------------------------------------|


   S  S  S  S  Q     E   S  S  S  S  S  S
--15--------------------------------------|
-----17-17-17-17~----L--15-17-17-17-15-17-|
------------------------------------------|
------------------------------------------|
------------------------------------------|
------------------------------------------|


  S  E.     E.   S S  S  E    S     S   S  S
---------------------12----------------------|
--L-17pbr---L----L-L----15b------------------|
----17pbr---L----L-L---------15pbr-14S-12-12-|
---------------------------------------------|
---------------------------------------------|
---------------------------------------------|


                 |---3---|
   E    S  S     S    S  S  E   H
-----------------------------------------|
-------15--------------------------------|
--14b-----14br-(14)p-12----12~--L--------|
------------------------14---------------|
-----------------------------------------|
-----------------------------------------|


                             |---3--|
  Q.      S   S  S  S  S  S  S  S   S  E
----------------12-12-12------------------|
-------------12----15---------------------|
--L------14b-------------14b-L-14p-12-----|
--------------------------------------14--|
------------------------------------------|
------------------------------------------|


            |--3-|
   E.    S  S  S S  E  S  S  S   S  S  S   S  S
-----------------------------------12-------------|
--12b~--------------------------12----15p-12------|
--12b~-------------------12-14b--------------14br-|
-----------------x-14--L-12-----------------------|
--------------------------------------------------|
---------x-15b-L----------------------------------|


    |---3--|
    S   S  Q     E   E  E   E   E   E
---------------------------------------|
---------------------------------------|
--(14)-12------------------------------|
----------14----14--14--L--14--14--14--|
----------------14--14--L--14--14--14--|
-----------------0---0--L---0---0---0--|


   E   S  S  S   S  S  S S  S  E   S   S  E
---------------------------------------------|
---------------------------------------------|
---------------------------------------------|
--14--14-14--------14-14-L-14-14---------14--|
--14--14-14--------14-14-L-14-14---------14--|
---0---0--0-15b-12----------------15b-12-----|


  E  S S E  E   T   T   T   T   T   T S S S S S  E
----------------------------------------------------|
----------------------------------------------------|
----------------------------------------------------|
---------------12h-14p-12h-14p-12h-14-x-x-x-x-x-----|
--------------------------------------x-x-x-x-x-----|
--0--x-x-x--x-----------------------------------12--|


   T   T   T   T   T   T  S  E    T   T   T   T   T   T   T   T   T   T   T   T
---------------------------------------------------------------------------------|
---------------------------------------------------------------------------------|
---------------------------------------------------------------------------------|
--12h-14p-12h-14p-12h-14---------12h-14p-12h-14p-12h-14p-12h-14p-12h-14p-12h-14--|p
-------------------------12------------------------------------------------------|
-------------------------12-15b--------------------------------------------------|


                                |--3--|
   T   T   T   T  S  S  E       S   S S E  S S S  E   S
--------------------------------------------------------|
--------------------------------------------------------|
--------------------------------------------------------|
--12h-14p-12h-14------------12g14p-12---x--x-x-x-14--14-|
----------------------------------------x--x-x-x--------|
-----------------12-12-15b------------------------------|


                                              Spoken :
                                  |---3---|
      E      S  S  E    E  S  S   S   S   S   T        T   T   T   T   T   T   T
---------------------------------------------------------------------------------|
---------------------------------------------------------------------------------|
---------------------------------------------------------------------------------|
--12g14--12g14-12------------14p-12h-14p-12h-14p------12h-14p-12h-14p-12h-14p-12-|
---------------------------------------------------------------------------------|
------------------15b--12--L-----------------------------------------------------|


   I wanted to say thank you very much and good night
   T                                                  T   T   T   T   T   T   T
---------------------------------------------------------------------------------|
---------------------------------------------------------------------------------|
---------------------------------------------------------------------------------|
--14p------------------------------------------------12h-14p-12h-14p-12h-14p-12--|h
---------------------------------------------------------------------------------|
---------------------------------------------------------------------------------|


   I'd like to thank peace, yeah, and happiness,
   T                                             T   T   T   T   T   T   T   T
--------------------------------------------------------------------------------|
--------------------------------------------------------------------------------|
--------------------------------------------------------------------------------|
--14p-------------------------------------------12h-14p-12h-14p-12h-14p-12h-14p-|
--------------------------------------------------------------------------------|
--------------------------------------------------------------------------------|


   happiness, yeah, happiness.
   T                           T   T   T   T   T   T   T    T     T   T   T    T
----------------------------------------------------------(28)h~-------------(28-|
---------------------------------------------------------------------------------|
---------------------------------------------------------------------------------|
--14p-------------------------12h-14p-12h-14p-12h-14p-12h--14p~--12h-14p-12h--14-|
---------------------------------------------------------------------------------|
---------------------------------------------------------------------------------|


   T   T   T   T   T   T   T   T   T   T   T   T   T   T   T   T   T   T   T   T
---------------------------------------------------------------------------------|
---------------------------------------------------------------------------------|
---------------------------------------------------------------------------------|
--14p-12h-14p-12h-14p-12h-14p-12h-14p-12h-14p-12h-14p-12h-14p-12h-14p-12h-14p-12-|
---------------------------------------------------------------------------------|
---------------------------------------------------------------------------------|


       |-3-|
   E   S S S E   E   S    S  E   E    E
------------------------------------------|
--14b--0---x-x--14--14pbr-L-12------------|
--------------------------------14b--12~--|
------------------------------------------|
------------------------------------------|
------------------------------------------|


                                 |--3--|
  Q    S  S  S  S  E    E   E    S   S S     E.   S  S   S  E   Q    S  E   S
-----------------------------------------|------------------------------------|
-----------------------15----------------|------------------------------------|
--L------------12-14b------14b--14p-12-L-|------------------------------------|
---------12-14---------------------------|--14~---0--------14~--L------14-----|
-----------------------------------------|--------0------------------x-14--12-|
-----------------------------------------|--------0-15b-12-----------x--------|


                              NH
   S   E   S  E       E  S    S  S  S  E   E
---------------------------<>12----------------|
---------------------------<>12----------------|
--------------------------------12--------14b--|
--12h-14--12------12g14--L------12-14------0---|
-----------------------------------14----------|
-------------15b----------------------15-------|


                                   |-3-|
   E     E  E  E   E    S   S  E   S S S
-----------------------------------------|
------------0----------------------------|
--14pbr--L-----0--14b--14p-12------------|
------------------------------14~--------|
-----------------------------------0-L-0-|
-----------------------------------------|


                               |--3-|
  E.   S  E   E   S  S  S   S  S S  S  S   S     Q     Q    E.   S  Q
---------------------------------------------|---------------------------|
---------------------------------------------|---------------------------|
---------------------0-----------------------|--12~----L----L---12~-L----|
------14-----14~--L-12-14p-12------12--------|------------------12~-L----|
------------------------------14-------------|---------------------------|
--0------12---------------------------15b-12-|---------------------------|


               \0/ \6/
  E.   S   E   E   H            Q     Q      Q     E.   S
-----------------------------|----------------------------|
-----------------------------|----------------------------|
--L---12~-12p--0h--0h--------|--0~----L----1g2S----4S---7-|
--L---12~-12-----------------|----------------------------|
-----------------------------|----------------------------|
-----------------------------|----------------------------|


  Q      E.  S E   E  E   S   S     S  S S S E   E  E  E  E   E
----------------------7h--7S-(0)-|--------------------------------|
-------------8-L--10--7h--7S-(0)-|--------------------------------|
--7S~----9------------7h--7S-(0)-|--------------------------------|
------------------------------0--|--0h-2-2-------------2--L--(x)--|
---------------------------------|--------------------------------|
---------------------------------|---------0-3b--0--L-------------|


                       |--3-|
  E   S S S S E  E  E  S  S S E       E  S S E     E  E  E  E  S S
---------------------------------|---------------------------------|
---------------------------------|---------------------------------|
--2b--2-0-L---1------------------|---------------------------------|
------0-x-----2--------0h-2-L----|--0g2----------0g2--L-----2------|
------0-3-L-0--------------------|-----------------------2--2------|
--------3-L-0----0--0---------0--|-------0-0-3b----------0-----0-0-|


                         |-3-|
    E.  S E     E  E  E  S S S E
-------------------------------0--|
----------------------0------0----|
-------------------1--------------|
--0g2---2-----0g2--L--------------|
----------------------------------|
----------3b-------------0-L------|


                        NH
    E.  S S    S   E    S S  E    S  S S   S
----0---0-------------------------------------|
--3g5-----3br-(3)p-0--<>5-3h-5--3g5p-3--------|
---------------------------------------4p-(0)-|
----------------------------------------------|
----------------------------------------------|
----------------------------------------------|


                  |-3-|
  E   S S S S S S S S S S S S S S  S    E.   S Q     S S E   S    S   S S
------------------------------0------|-----------------0------------------|
--3b--L-5-5-0-----------------0-3p-0-|--5~---3-5~----0---3b--3br-(3)p-0-0-|
------------0---1--------------------|----------------------------------0-|
------------0---2-----------2--------|------------------------------------|
----------------------2-2-2-2--------|------------------------------------|
------------------0-L-0-0-0-0--------|------------------------------------|


  E   S S S S S  S S S E  Q       E.   S E  E   S S E  S S S S
-------------------------------|-------------------------0-0-0-|
--3b--L-5-5-5-5p-3-0-----------|-------------------------0-0-0-|
-------------------------------|--2b---2-L-------------------2-|
---------------------2---------|--2b---2-L--------2-2----------|
-------------------------------|-------------------------------|
-----------------------0--3----|------------3p--L-0----0-------|


          |----3---|
  E   S S S    S   S E  S S E  E  S S    E.    S E  S S S S E  S S S  S
--------0-----------------------------|---------------------------------|
------0-------------------------------|---------------------------------|
--2b------2br-(2)p-0-1---------1----2-|---------------------------------|
---------------------2----2----2--2---|--2br---L-L--0-1-2-0-2--L-2------|
--------------------------2----2------|---------------------------------|
------------------------0---0---------|----------------------------3p-0-|


  E.  S  E  E  E  E  E  S S      Q      S  S E  S S E    S S E
---------------------0------|----0--------------0-0----------0--|
------------------0--0--0-3-|--3g5----3g5p-3-5--0---5--3g5-3-0--|
------------1--L--1--1------|-----------------------------------|
--2---------2--L--2---------|-----------------------------------|
----------------------------|-----------------------------------|
------3b-L------------------|-----------------------------------|


  E   S S E   S S  E   E  S  S E       E  S   S  S S S S S S   E  E  S S
----------------------------------|----------------------0-0------0----0-|
--3b--L-5-5~----------------------|--3g5--5-3g5p-L-3-0-0-----3g5-----0---|
-------------------------------1--|--------------------------------------|
-------------------------------2--|--------------------------------------|
----------------------------------|--------------------------------------|
--------------0-0-12S--0--3b-0----|--------------------------------------|


                 |---3--|
  E.  S S E  S   S  S   S S S S S S  S      S E  S S E  S  S S S  S E  S S
----------------------------0-0-0----0-|----------------3b-L---------------|
--3---5-5-5--3br-L-(3)p-0---0-0-0----0-|--3g5-5--5-5-5-------5-3h-5-L--3-0-|
--------------------------2-0-0---2b---|-----------------------------------|
---------------------------------------|-----------------------------------|
---------------------------------------|-----------------------------------|
---------------------------------------|-----------------------------------|


  S  S S S S  S   E   E  E    E.  S    S S E   S   S  E  E  E  S S E
------------------------------------|-------------(0)-----------------|
---------0------3g5p--L--3--3g5---3-|--L-5-5--(0)-----3--L--4--L-4-5--|
--2b-0---1--------------------------|---------------------------------|
-------2----------------------------|---------------------------------|
------------------------------------|---------------------------------|
-----------3b-0---------------------|---------------------------------|


  |--3-|
  S  S S  S S E    E  S S S S E  S S      E  S S E  S S S S S  S E  E
--3p-0------------------------0--0-0-|----------------------------------|
-------3p-0-------------------0--0-0-|--3g5--5-5-5--5-5-5-5-5S-7-7--7b--|
------------------------1-1-1-1------|----------------------------------|
------------2----0g2--L-2-2-2-2------|----------------------------------|
-------------------------------------|----------------------------------|
--------------0----------------------|----------------------------------|


  E.   S E    E   S  S E    E  S S      E  S S E  S S S S E  E  S   S
----------------------------0----0-|----------------------------------|
--5~---5-5S--(0)----------3g5--0---|--3g5--5-5-5--5-5-5-5-5--7--7br-L-|
-----------------------1-----------|----------------------------------|
-----------------------2-----------|----------------------------------|
--------------0--------------------|----------------------------------|
--------------0---3p-0-------------|----------------------------------|


  E  S  S S S S S E  E  E  E
------------------------------|
--5---------------------5--7--|
------------0-0---------------|
------------0-0---------------|
------------------0--0--------|
-----0h-3-L-----0-0--0--------|


  E   S   S   S   S   S   S   E.     S    S S    E
-------------------------------------------------------|
--7b--7pb-7pb-7pb-7pb-7pb-7pb-7pb~---7pb~-L-7pb~-7pb~--|
-------------------------------------------------------|
-------------------------------------------------------|
-------------------------------------------------------|
-------------------------------------------------------|


  E  S S E   E  Q       E  S S    E  E   S S S S S   S S S S S E
-------------------------------|----------------------------------|
--7--7-7-7b--7--5~----3g5--3-3-|--3--5~--L-5-3---------3-3-3-3-5--|
-------------------------------|---------------4-0-<>3------------|
-------------------------------|----------------------------------|
-------------------------------|----------------------------------|
-------------------------------|----------------------------------|


               |--3--|
  S  T  T  E   S  S  S S S S   S  E  S S E
--3b---------------------0----(0)------------|
-----5p-3h-5~--3h-5p-3---0-3p--0--3--3-5-5b--|
-----------------------4---------------------|
---------------------------------------------|
---------------------------------------------|
---------------------------------------------|


               |--3--|
  E    S S S S S  S  S S S E  S S S S    E  E  E.   S S S S  S E    S  S
--------------------------------------|----------------------------------|
--5pb--5-5-5-5-5S-3p-0---3-3--3-3-5-5-|--3--5--3~---0-0-3-5p-3-5--3g5p-3-|
-----------------------0--------------|---------------0------------------|
--------------------------------------|----------------------------------|
--------------------------------------|----------------------------------|
--------------------------------------|----------------------------------|


  E.  S S S  S S  S  S S S S   S    S S
----------------------------------------|
--5---5-5-3b-0-0------------------------|
-------------0-0------------------------|
-------------------------------0------0-|
---------------------0-----3p--0------0-|
-----------------15S-0-0-0-3p-(0)S-16---|


  S  E     S     E      S  S   E   E   E   S   S
-------------------------------------------------|
----12b~--12pb~-12pb~-----12b~-L-----------------|
----12b~--12pb~-12pb~-----12b~-L--12--14--14br-x-|
-----------------------14------------------------|
-------------------------------------------------|
--0----------------------------------------------|


             |---3---|   |---3---|
    Q        S   S   S   S   S   S  E  E  E  E
------------------------------------------------|
--(12)b~----------------------------------------|
---12b~-----------------------------------------|
------------12h-14p-12h-14p-12h-14--------x-----|
-----------------------------------14-----------|
------------------------------------0--0-----0--|


   E   S  S    Q       E   E    E   S    S
-------------------------------------------|
-------------------------------------------|
--12b--L-12pb-12pb~----L--12b--14--14pbr-L-|
-------------------------------------------|
-------------------------------------------|
-------------------------------------------|


               |-3-|  |---3--|
   Q      Q    E   S  S   S  S   E      E
-------------------------------------------|
-------------------------------------------|
--12~--------------------------------------|
---------14----L--12----------------12g14--|
---------------------14p-12----------------|
----------------------------14p-12---------|


                            |---3--|  |---3--|
   E.   S  Q     E   S   S  S  S   S  S   S  S
-----------------------------------------------|
-----------------------------------------------|
--14b---L-14~----L---------12------------------|
--------------------12h-14----14p-12-----------|
-------------------------------------14S-12-10-|
-----------------------------------------------|


   S S E  S S  S  S S S  S S  E   S S
--------------------------------------|
--------------------------------------|
--12----------------------------------|
--12-9------x-------x-x-------------x-|
------------x-------x-x----------12---|
-------0------12-12-----12-x-12-------|


      S  S  S  S  E   E  S  S  S   S  E   E
----------------------------------------------|
-----------------------------------------12~--|
-----------------------------------------12~--|
--12g14-12-14-12-14--------12-14p-12-14-------|
----------------------------------------------|
---------------------12-----------------------|


  E   S  S S S S S E  S S S S S  S     S   S  S  S  E   E  S  S  S  S S S  E
-----------------------------------|-------------------------------------------|
--L--------------------------------|--------------------------------------12~--|
--L--------------------------------|--------------------------------------12~--|
-------------x---x-x----x-x-x-x-12-|--14p-12-14-14-12--------12-14-12---0------|
-------------x---x-x----x-x-x-x----|-------------------------------------------|
-----10-12-x---x------x------------|-------------------12--x-------------------|


                     Spoken :         Thank you again. You can leave if you want
  E  S S  S S S S  S S        S  S E  E
--------------------------------------------------------------------------------|
--L--x-x----x-x-x----x--------x----x--------------------------------------------|
--L--x-x----x-x-x----x--------x----x--------------------------------------------|
--------------------------------------------------------------------------------|
--------------------------------------------------------------------------------|
---------12-------12------------12----------------------------------------------|


  E  S S E  E  E  E  Q
--------------------------|
-----x-x-x-----x----------|
-----x-x-x-----x----------|
--------------------------|
--------------------------|
------------x-------------|


  we're just jammin', that's all ...
  Q                                   Q    E  S S E  E
--------------------------------------------------------|
-------------------------------------------x------x-----|
-------------------------------------------x------x-----|
--------------------------------------------------------|
----------------------------------------------x-x-------|
----------------------------------------------x-x-------|


  You can leave or you can clap, man, yeah !
  Q                                          E  S S E  S S  S  S  S  S
------------------------------------------------------------x--x--x----|
---------------------------------------------x------x-------x--x--x----|
---------------------------------------------x------x-------x--x--x----|
------------------------------------------------------------x--x--x----|
------------------------------------------------x-x----x-x--x--x--x----|
------------------------------------------------x-x----x-x-12-12-12-12-|


   E   S S S S  S  S E  S S S S E     E   S  S S S S S S S E  E  E
-----------------------------------|--------------------------------|
---x-------x-x---------------------|--x--------x-x-x-x-x-x----x--x--|
---x-------x-x---------------------|--x--------x-x-x-x-x-x----x--x--|
--14-----------------x------x-x----|--------------------------------|
--14--14-x-----------x--x-x-x-x-x--|-----12-12-------------x--------|
------12-x-----12-12----x-x-----x--|-----12-12-------------x--------|


                    |---3---|
   E   E   E.    S  S   S   S  S  S S  S  E
---------------------------------------------|
---------------------------------------------|
--14b-----12~---12---------------------------|
-------------------12h-14p-12----14----------|
------------------------------12-------------|
--------------------------------------15-12--|


                                       NH
   E      S     S   Q      S   S  S    S S S  E
-------------------------------------------------|
-------------------------------------------------|
--14br--(14)p-(12)-12~--------12----<>12---------|
--------------------------14p-12-14--------------|
-------------------------------------------------|
-----------------------------------------x-x-12--|


   E   S S  E.   S  S   S  E  E   E
-------------------------------------|
-------------------------------------|
--14b--L---12b---L-------------------|
-------------------14p-12-----x------|
------------------------------x------|
--------------------------12-----12--|


                        |---3--|
   E   S  S    E.    S  S   S  S  E  E  S S
--------------------------------------------|
-------------------------------------x--x-x-|
--14b--L-14pb-12~---12---------------x--x-x-|
-----------------------14p-12---------------|
--------------------------------------------|
------------------------------12-12---------|


                           |-3-|  |---3---|
  E   S  S E   E   E   E   E   S  S   S   S
--------------------------------------------|
--x-----------------------------------------|
--x--14b-L-L--12~--L----------12------------|
----------------------14p--L--12------------|
---------------------------------14p-12h-14-|
--------------------------------------------|


                             |-3-|  |---3--|
   E    E  S S  E   E   E    E   S  S   S  S
---------------------------------------------|
-------------x-12~--L------------------------|
--14b--14--L-x-12~--L------------------------|
-----------------------14p~--L--12-----------|
-----------------------------------14p-12----|
------------------------------------------14-|


                          |-3-|  |---3--|
  E   E   E   E   E   E   E   S  S   S  S
------------------------------------------|
------------------------------------------|
-----14b--L--12~--L-----------------------|
---------------------14p--L--12-----------|
--------------------------------14p-12----|
---------------------------------------14-|


                            |--3-|  |--3--|
   E   E   S S  E   E   E   E    S  S   S S
--------------------------------------------|
--------------------------------------------|
------14b--L-x-12~--L-----------------------|
-----------------------14--14p--12----------|
-----------------------------------14p-12---|
--12--------------------------------------x-|


    E    S   S E    E     S  S  E    E      E
-----------------------------------------------|
--------15br-L-L--(15)p~--L-12-----------------|
-------------------------------14b--14pbr--14--|
-----------------------------------------------|
--(13)-----------------------------------------|
-----------------------------------------------|


   E   E   E   E   E   E   E   S   S
--------------------------------------|
--------------------------------------|
--14--12~--L--------------------------|
--------------14~--L--12~--L----------|
------------------------------14S-12h-|
--------------------------------------|


   E    S  S E   E   E   S   S  S  S   S  S
---------------------------------------------|
-------15--L-L-------------------------------|
-------14b-L-L--12~--L-------------------14b-|
------------------------14p-12-14-14p-12-----|
--14S----------------------------------------|
---------------------------------------------|


  E  S  S  Q      E.    S  S  E.      E  S  S  Q      Q      E   S   S
----------------------------------|------------------------------------|
-------15-------------------------|--------15-12~----------------------|
--L--L----12~---------------------|--14--L----12~-----------12--14p-12-|
-----------------14~---12-12-14---|------------------14~----12--14p-12-|
----------------------------------|------------------------------------|
----------------------------------|------------------------------------|


   E.    S  E.      S  E.    S  E    S S
-----------------------------------------|
-------------------12--------------------|
--14b---14-12pb~-------------------------|
----------------------14~---14-12b--14---|
---------------------------------------0-|
-----------------------------------------|


   E    S    S  E.    S   E    S S  E    S S
---------------------------------------------|
--15-----------12~---12----------0-----------|
--14b--14pb-14-12~---12-(14)-----0-12b--14-0-|
-------------------------14---14---12b--14-0-|
---------------------------------------------|
---------------------------------------------|


   E.    S  Q      Q      E   S   S
------------------------------------|
------------------------------------|
--14b---14-12~----------------------|
------------------14~----12--14p-12-|
------------------------------------|
------------------------------------|


   E    S  S   S   E    S  E.   S  E    S   S
----------------------------------------------|
-------12-------------------------------------|
--14b-----14b-14p-12b-------------------------|
-----------------------14~-L------12b--14p-12-|
-------------------------------14-------------|
----------------------------------------------|


   E.    S  E.    S  E   S  S  S   S  E
-------------------------------0------0--|
-----------------12------------0------0--|
--14b---14-12~-----------------x------x--|
--------------------14--14-14-12h-14-14--|
---------------------------14------------|
-----------------------------------------|


   S   S  S  S   T  T   T  T     T    T  T  T  T   T  T  T     S      X   X   T
---------12-----12---------------------------------------------------------------|
------12----15b----15p-12--------------------------------------------------------|
--14b---------------------14br-(14)p-12----12------------------------------------|
----------------------------------------14----14p-12----12-12g14h-12g14p-12h-14--|p
-----------------------------------------------------14--------------------------|
---------------------------------------------------------------------------------|


   T   T   T   T   T   T   T   T   T   T   T   T   T   T   T   T   T   T   T   T
---------------------------------------------------------------------------------|
---------------------------------------------------------------------------------|
---------------------------------------------------------------------------------|
--12h-14p-12h-14p-12h-14p-12h-14p-12h-14p-12h-14p-12h-14p-12h-14p-12h-14p-12h-14-|
---------------------------------------------------------------------------------|
---------------------------------------------------------------------------------|


  +                           o
                       |--3-|                |-3-|
  T  T  T  T  T  T S   S  S S S  S   E   E   S S S T  T  S
-----------------------------------------------------------|
------------------------------7----------------------------|
--7h-9p-7h-9p-7h-9-7----------7b---------------------------|
---------------------0g7h-9--------7g5b--5b--7-L-5---------|
---------------------------------------------------7p-5p-0-|
-----------------------------------------------------------|


    +     o    +                o  +
    E.  S E    E   S  X   X X X E  S  S   E
--------------------------x-------------------|
----------------------------x-----------------|
--7g9---7----7g9h--L-(9)S---x-----------------|
----------9-------------------x---------------|
------------------------------x---------------|
--------------------------------0--L-(x)-(0)--|


  +                                       o     + o       +  o    +    o
                        |-3-|
  E.   S S  S E   E  E  S S S T  T S      E.    S E    E  E  E    T    T  E.
-------------------------------------|----------------------------------------|
-------------------------------------|----------------------------------------|
--7b---7-------------5---------------|--7g9---9g7----7g9--L-------------------|
---------7h-9-7b--7--5--7---5--------|------------9---------------------------|
------------------------------7p-5---|----------------------------------------|
-----------------------------------7-|-----------------------0h--(0)h-(0)-----|


    +   o    +  o     +   o
                              |-3-|
    E.  T  T E  E     E   E   S S S S. T
-----------------------------------------|
----------------8b-----------------------|
--7g9--------7------7g7------------------|
--------7h-9--------7g5b--5b--7-L-5------|
------------------------------------7--0-|
-----------------------------------------|


          +                o    +    o
            |--3-|
    S  E  S S  S S S  S E  E    S    S   E
----------------------------------------------|
-----------------0----------------------------|
----------------------------------------------|
--5g7b-L--5-7b-----5b-L-L---------------(5)S--|
----------------------------------------------|
---------------------------0h--(0)h-(0)-------|


              |--3-|           |--3-|   |-3| |--3-|
    E.   T  T S  S S S  S S  S S  S S   E  S S  S S
----------------------------------------------------|
----------------------------------------------------|
--7g9~---7p-0--------7b---------------0g2--0--------|
--------------7h-9--------5b---5b-L----------2p-0---|
--------------------------------------------------1-|
----------------------------------------------------|


      w / teeth                                         --|
                           |----3----|
  E.  S          E    E    S     S   S  T  S. T   S. S  S
----------------------------------------------------12-----|
------x---------15b--15b--15br-(15)p-0-----------------15--|
---------------------------------------------12h-13--------|
---------------------------------------12-14---------------|
-----------------------------------------------------------|
-----------------------------------------------------------|


                                   \2/                \1/
   S   S  S  S  S   S  S  S  Q     Q        Q     E   E   Q    Q
-----------------------------------------|--------------------------|
-----------------------------------------|------------0---L----L----|
--14b-14-12------------------------------|------------0---L----L----|
------------14-12b----------10b----------|------------0---L----L----|
-------------------14-13-12-10b----------|--------------------------|
-----------------------------------0h----|--L----(0)----------------|


  on cue.
  Q       T T T T T T T T T T T T  T T T T  T T T T  T T T T
--0-------0-0-0-0-0-0-0-0-0-0-0-0S-4-4-4-4S-5-5-5-5S-6-6-6-6S-|
--0-------0-0-0-0-0-0-0-0-0-0-0-0-----------------------------|
--1-------1-1-1-1-1-1-1-1-1-1-1-1S-4-4-4-4S-5-5-5-5S-6-6-6-6S-|
--2-------2-2-2-2-2-2-2-2-2-2-2-2-----------------------------|
--2-------2-2-2-2-2-2-2-2-2-2-2-2-----------------------------|
--0-------0-0-0-0-0-0-0-0-0-0-0-0-----------------------------|


                                           accel.
                                           |--------5-------|  |------5-----|  |
  T T T T  T T T T  T T T T   T  T  T  T   T      T  T  T   T  T  T  T   T  T  T
--7-7-7-7S-8-8-8-8S-9-9-9-9S-10-10-10-10S-11-----11-11-11S-12-12-12-12S-13-13-13-|
---------------------------------------------------------------------------------|
--7-7-7-7S-8-8-8-8S-9-9-9-9S-10-10-10-10S-11-----11-11-11S-12-12-12-12S-13-13-13-|
---------------------------------------------------------------------------------|
---------------------------------------------------------------------------------|
---------------------------------------------------------------------------------|


   T  T  T  T  T  T  T  T  H.              H        H
--16-16-16-16-16-16-16-16-16------------|--L-----------------||
----------------------------------------|--------------------||
--16-16-16-16-16-16-16-16-16------------|--L-----------------||
----------------------------------------|--------------------||
----------------------------------------|--------------------||
----------------------------------------|--------------------||




Duration Legend
---------------
W - whole
H - half
Q - quarter
E - 8th
S - 16th
T - 32nd
X - 64th
. - note dotted
|-n-|  - n-tuplets


Tablature Legend
----------------
L - tied note
x - dead note
g - grace note
(n) - ghost note
> - accentuded note
NH - natural harmonic
AH - artificial harmonic
TH - tapped harmonic
SH - semi harmonic
PH - pitch harmonic
h - hammer on
p - pull off
b - bend
br - bendRelease
pb - preBend
pbr - preBendRelease
brb - bendReleaseBend
\n/ - tremolo bar dip
\n - tremolo bar dive
-/n - tremolo bar Release up
/n\ - tremolo bar inverted dip
/n - tremolo bar return
-\n - tremolo bar Release down
S - shift slide
s - legato slide
/ -  slide into from below or out of upwards
\ -  slide into from above or out of downwards
~ - vibrato
W - wide vibrato
tr - trill
TP - tremolo picking
T - tapping
S - slap
P - pop
< - fade in
^ - brush up
v - brush down
comments
We did not receive enough feedback on this tab! Please rate:
print report bad tab
1 2 3 4 5
1 comment total.
0 reply
robglasgow wrote on December 31 2011, 12:02 am

Where is this version from?

I want to post or [tab]
guest
You may want to rate the tab now too:
select rating
Please do not post tabs as comments. Select "correction" instead!