Oops, an error
Loading. Please wait.

The Middle Tab

6,946 views 6 this week
no commentswrite comment
1 2 3 4 5
worth learning
x 2
Autoscroll
+/-
esc
set tempo
stop
Contributor
Hey! There's an official Ultimate Guitar app which is ideal
for learning songs when you're away from computer. Get the app
WARNING: You are trying to view
                                    content from Ultimate-Guitar.com
                                    in an unauthorized application,
                                    which is prohibited.

                                    Please use an official Ultimate
                                    Guitar Tabs application for iPhone,
                                    iPad or Android to access legitimate
                                    chords, guitar, bass, and drum tabs
                                    from Ultimate-Guitar.com database.

                                    Type "ultimate guitar tabs" in Apple
                                    App Store's or Android Market's
                                    search to find the application.
“The Middle” Guitar Tab
Song written and performed by Jimmy Eat World
Tabbed by Eric Moulton
Contact at e.moulton@yahoo.com

Intro (Palm mute all guitars)
Guitar 1
E:|-----------------|-----------------|-----------------|-----------------|
B:|-----------------|-----------------|-----------------|-----------------|
G:|-----------------|-----------------|-----------------|-----------------|
D:|-4-4-------------|-------4-4-4-4-4-|-2-2-------------|-----------------|
A:|-----5-5-5-5-5-5-|-5-5-5-----------|-----4-4-4-4-4-4-|-4-4-4-4-4-4-4-4-|
D:|-----------------|-----------------|-----------------|-----------------|

Guitar 2
E:|-----------------|-----------------|-----------------|-----------------|
B:|-----------------|-----------------|-----------------|-----------------|
G:|-----------------|-----------------|-----------------|-----------------|
D:|-----------------|-----------------|-----------------|-----------------|
A:|-----------------|-----------------|-----------------|-----------------|
D:|-0-0-0-0-0-0-0-0-|-0-0-0-0-0-0-0-0-|-7-7-7-7-7-7-7-7-|-7-7-7-7-7-7-7-7-|

Guitar 1
E:|-----------------|-----------------|-----------------|-----------------|
B:|-----------------|-----------------|-----------------|-----------------|
G:|-----------------|-----------------|-----------------|-----------------|
D:|-----------------|-----------------|-----------------|-----------------|
A:|-5-5-5-5-5-5-5-4-|-4-4-4-4-4-4-4-4-|-5-5-5-5-5-5-5-5-|-5-5-5-5-5-5-5-5-|
D:|-----------------|-----------------|-----------------|-----------------|

Guitar 2
E:|-----------------|-----------------|-----------------|-----------------|
B:|-----------------|-----------------|-----------------|-----------------|
G:|-----------------|-----------------|-----------------|-----------------|
D:|-----------------|-----------------|-----------------|-----------------|
A:|-----------------|-----------------|-----------------|-----------------|
D:|-5-5-5-5-5-5-5-5-|-5-5-5-5-5-5-5-5-|-0-0-0-0-0-0-0-0-|-0-0-0-0-0-0-0-0-|

Verse (Palm mute all guitars)
Guitar 1
E:|-----------------|-----------------|-----------------|-----------------|
B:|-----------------|-----------------|-----------------|-----------------|
G:|-----------------|-----------------|-----------------|-----------------|
D:|-----------------|-----------------|-----------------|-----------------|
A:|-----------------|-----------------|-----------------|-----------------|
D:|-0-0-0-0-0-0-0-0-|-0-0-0-0-0-0-0-0-|-7-7-7-7-7-7-7-7-|-7-7-7-7-7-7-7-7-|

Guitar1
E:|-----------------|-----------------|-----------------|-----------------|
B:|-----------------|-----------------|-----------------|-----------------|
G:|-----------------|-----------------|-----------------|-----------------|
D:|-----------------|-----------------|-----------------|-----------------|
A:|-----------------|-----------------|-----------------|-----------------|
D:|-5-5-5-5-5-5-5-5-|-5-5-5-5-5-5-5-5-|-0-0-0-0-0-0-0-0-|-0-0-0-0-0-0-0-0-|

Guitar 1
E:|-----------------|-----------------|-----------------|-----------------|
B:|-----------------|-----------------|-----------------|-----------------|
G:|-----------------|-----------------|-----------------|-----------------|
D:|-----------------|-----------------|-----------------|-----------------|
A:|-----------------|-----------------|-----------------|-----------------|
D:|-0-0-0-0-0-0-0-0-|-0-0-0-0-0-0-0-0-|-7-7-7-7-7-7-7-7-|-7-7-7-7-7-7-7-7-|

Guitar 2
E:|-----------------|-----------------|-----------------|-----------------|
B:|-----------------|-----------------|-----------------|-----------------|
G:|-7-7-7-7-7-7-7-7-|-7-7-7-7-7-7-7-7-|-7-7-7-7-7-7-7-7-|-7-7-7-7-7-7-7-7-|
D:|-0-0-0-0-0-0-0-0-|-0-0-0-0-0-0-0-0-|-0-0-0-0-0-0-0-0-|-0-0-0-0-0-0-0-0-|
A:|-----------------|-----------------|-----------------|-----------------|
D:|-----------------|-----------------|-----------------|-----------------|

Guitar 1
E:|-----------------|-----------------|-----------------|-----------------|
B:|-----------------|-----------------|-----------------|-----------------|
G:|-----------------|-----------------|-----------------|-----------------|
D:|-----------------|-----------------|-----------------|-----------------|
A:|-----------------|-----------------|-----------------|-----------------|
D:|-5-5-5-5-5-5-5-5-|-5-5-5-5-5-5-5-5-|-0-0-0-0-0-0-0-0-|-0-0-0-0-0-0-0-0-|

Guitar 2
E:|-----------------|-----------------|-----------------|-----------------|
B:|-----------------|-----------------|-----------------|-----------------|
G:|-4-4-2-2-2-2-2-2-|-2-2-2-2-2-2-2-2-|-7-7-7-7-7-7-7-7-|-7-7-7-7-7-7-7-7-|
D:|-0-0-0-0-0-0-0-0-|-0-0-0-0-0-0-0-0-|-0-0-0-0-0-0-0-0-|-0-0-0-0-0-0-0-0-|
A:|-----------------|-----------------|-----------------|-----------------|
D:|-----------------|-----------------|-----------------|-----------------|

Chorus
Guitar 1
E:|-----------------|-----------------|-----------------|-----------------|
B:|---3-3----3---3--|---3-3------3-3--|---2-2----2----2-|---2-2-----2-2---|
G:|---2-2----2---2--|---2-2------2-2--|---2-2----2----2-|---2-2-----2-2---|
D:|---0-0----0---0--|---0-0------0-0--|---2-2----2----2-|---2-2-----2-2---|
A:|---0-0----0---0--|---0-0------0-0--|---0-0----0----0-|---0-0-----0-0---|
D:|---0-0----0---0--|---0-0------0-0--|-----------------|-----------------|

Guitar 1
E:|-----------------|-----------------|-----------------|-----------------|
B:|---8-8----8---8--|---8-7------8-8--|-3---3-3---3--3--|---3-3----3---3--|
G:|---7-7----7---7--|---7-7------7-7--|-2---2-2---2--2--|---2-2----2---2--|
D:|---5-5----5---5--|---5-5------5-5--|-0---0-0---0--0--|---0-0----0---0--|
A:|---5-5----5---5--|---5-5------5-5--|-0---0-0---0--0--|---0-0----0---0--|
D:|---5-5----5---5--|---5-5------5-5--|-0---0-0---0--0--|---0-0----0---0--|

Verse (Palm mute all guitars)
Guitar 1
E:|-----------------|-----------------|-----------------|-----------------|
B:|-----------------|-----------------|-----------------|-----------------|
G:|-----------------|-----------------|-----------------|-----------------|
D:|-----------------|-----------------|-----------------|-----------------|
A:|-----------------|-----------------|-----------------|-----------------|
D:|-0-0-0-0-0-0-0-0-|-0-0-0-0-0-0-0-0-|-7-7-7-7-7-7-7-7-|-7-7-7-7-7-7-7-7-|

Guitar 1
E:|-----------------|-----------------|-----------------|-----------------|
B:|-----------------|-----------------|-----------------|-----------------|
G:|-----------------|-----------------|-----------------|-----------------|
D:|-----------------|-----------------|-----------------|-----------------|
A:|-----------------|-----------------|-----------------|-----------------|
D:|-5-5-5-5-5-5-5-5-|-5-5-5-5-5-5-5-5-|-0-0-0-0-0-0-0-0-|-0-0-0-0-0-0-0-0-|

Guitar 1
E:|-----------------|-----------------|-----------------|-----------------|
B:|-----------------|-----------------|-----------------|-----------------|
G:|-----------------|-----------------|-----------------|-----------------|
D:|-----------------|-----------------|-----------------|-----------------|
A:|-----------------|-----------------|-----------------|-----------------|
D:|-0-0-0-0-0-0-0-0-|-0-0-0-0-0-0-0-0-|-7-7-7-7-7-7-7-7-|-7-7-7-7-7-7-7-7-|

Guitar 2
E:|-----------------|-----------------|-----------------|-----------------|
B:|-----------------|-----------------|-----------------|-----------------|
G:|-7-7-7-7-7-7-7-7-|-7-7-7-7-7-7-7-7-|-7-7-7-7-7-7-7-7-|-7-7-7-7-7-7-7-7-|
D:|-0-0-0-0-0-0-0-0-|-0-0-0-0-0-0-0-0-|-0-0-0-0-0-0-0-0-|-0-0-0-0-0-0-0-0-|
A:|-----------------|-----------------|-----------------|-----------------|
D:|-----------------|-----------------|-----------------|-----------------|

Guitar 1
E:|-----------------|-----------------|-----------------|-----------------|
B:|-----------------|-----------------|-----------------|-----------------|
G:|-----------------|-----------------|-----------------|-----------------|
D:|-----------------|-----------------|-----------------|-----------------|
A:|-----------------|-----------------|-----------------|-----------------|
D:|-0-0-0-0-0-0-0-0-|-0-0-0-0-0-0-0-0-|-7-7-7-7-7-7-7-7-|-7-7-7-7-7-7-7-7-|

Guitar 2
E:|-----------------|-----------------|-----------------|-----------------|
B:|-----------------|-----------------|-----------------|-----------------|
G:|-4-4-2-2-2-2-2-2-|-2-2-2-2-2-2-2-2-|-7-7-7-7-7-7-7-7-|-7-7-7-7-7-7-7-7-|
D:|-0-0-0-0-0-0-0-0-|-0-0-0-0-0-0-0-0-|-0-0-0-0-0-0-0-0-|-0-0-0-0-0-0-0-0-|
A:|-----------------|-----------------|-----------------|-----------------|
D:|-----------------|-----------------|-----------------|-----------------|

Chorus
Guitar 1
E:|-----------------|-----------------|-----------------|-----------------|
B:|---3-3----3---3--|---3-3------3-3--|---2-2----2----2-|---2-2-----2-2---|
G:|---2-2----2---2--|---2-2------2-2--|---2-2----2----2-|---2-2-----2-2---|
D:|---0-0----0---0--|---0-0------0-0--|---2-2----2----2-|---2-2-----2-2---|
A:|---0-0----0---0--|---0-0------0-0--|---0-0----0----0-|---0-0-----0-0---|
D:|---0-0----0---0--|---0-0------0-0--|-----------------|-----------------|

Guitar 1
E:|-----------------|-----------------|-----------------|-----------------|
B:|---8-8----8---8--|---8-7------8-8--|-3---3-3---3--3--|---3-3----3---3--|
G:|---7-7----7---7--|---7-7------7-7--|-2---2-2---2--2--|---2-2----2---2--|
D:|---5-5----5---5--|---5-5------5-5--|-0---0-0---0--0--|---0-0----0---0--|
A:|---5-5----5---5--|---5-5------5-5--|-0---0-0---0--0--|---0-0----0---0--|
D:|---5-5----5---5--|---5-5------5-5--|-0---0-0---0--0--|---0-0----0---0--|

Guitar 1
E:|-----------------|-----------------|-----------------|-----------------|
B:|---3-3----3---3--|---3-3------3-3--|---2-2----2----2-|---2-2-----2-2---|
G:|---2-2----2---2--|---2-2------2-2--|---2-2----2----2-|---2-2-----2-2---|
D:|---0-0----0---0--|---0-0------0-0--|---2-2----2----2-|---2-2-----2-2---|
A:|---0-0----0---0--|---0-0------0-0--|---0-0----0----0-|---0-0-----0-0---|
D:|---0-0----0---0--|---0-0------0-0--|-----------------|-----------------|

Guitar 1
E:|-----------------|-----------------|-----------------|-----------------|
B:|---8-8----8---8--|---8-7------8-8--|-3---3-3---3--3--|---3-3----3---3--|
G:|---7-7----7---7--|---7-7------7-7--|-2---2-2---2--2--|---2-2----2---2--|
D:|---5-5----5---5--|---5-5------5-5--|-0---0-0---0--0--|---0-0----0---0--|
A:|---5-5----5---5--|---5-5------5-5--|-0---0-0---0--0--|---0-0----0---0--|
D:|---5-5----5---5--|---5-5------5-5--|-0---0-0---0--0--|---0-0----0---0--|

Bridge/Guitar solo
Guitar 1
E:|-----------------------------------|-----------------------------------|
B:|-2h3p2p0---------------------------|-----------------------------------|
G:|---------2h4p2p0-------------------|-----------------------------------|
D:|-----------------2h4p2p0-----------|---2----0------------0-------------|
A:|-------------------------4h5p4p0---|---------------4-----------4-------|
D:|-----------------------------------|-----------------------------------|

Guitar 2 (Palm mute)
E:|-----------------------------------|-----------------------------------|
B:|-----------------------------------|-----------------------------------|
G:|-----------------------------------|-----------------------------------|
D:|---7---7---7---7---7---7---7---7---|---7---7---7---7---7---7---7---7---|
A:|---7---7---7---7---7---7---7---7---|---7---7---7---7---7---7---7---7---|
D:|---7---7---7---7---7---7---7---7---|---7---7---7---7---7---7---7---7---|

Guitar 1
E:|-----------------------------------|-----------------------------------|
B:|-----------------------------------|-----------------------------------|
G:|-----------------------------------|-----------------------------------|
D:|-----------------------------------|------0h2p0------------------------|
A:|-/5------5--4--5-----------4---5---|---------------0-------------------|
D:|-----------------------------------|----------------------0------------|


Guitar 2 (Palm mute)
E:|-----------------------------------|-----------------------------------|
B:|-----------------------------------|-----------------------------------|
G:|-----------------------------------|-----------------------------------|
D:|---0---0---0---0---0---0---0---0---|---0---0---0---0---0---0---0---0---|
A:|---0---0---0---0---0---0---0---0---|---0---0---0---0---0---0---0---0---|
D:|---0---0---0---0---0---0---0---0---|---0---0---0---0---0---0---0---0---|

Guitar 1
E:|-----------------------------------|-----------------------------------|
B:|-2h3p2p0---------------------------|-----------------------------------|
G:|---------2h4p2p0-------------------|-----------------------------------|
D:|-----------------2h4p2p0-----------|---2----0------------0-------------|
A:|-------------------------4h5p4p0---|---------------4-----------4-------|
D:|-----------------------------------|-----------------------------------|

Guitar 2 (Palm mute)
E:|-----------------------------------|-----------------------------------|
B:|-----------------------------------|-----------------------------------|
G:|-----------------------------------|-----------------------------------|
D:|---7---7---7---7---7---7---7---7---|---7---7---7---7---7---7---7---7---|
A:|---7---7---7---7---7---7---7---7---|---7---7---7---7---7---7---7---7---|
D:|---7---7---7---7---7---7---7---7---|---7---7---7---7---7---7---7---7---|

Guitar 1
E:|-----------------------------------|-----------------------------------|
B:|-----------------------------------|-----------------------------------|
G:|-----------------------------------|-----------------------------------|
D:|-0-0-0-0-0-0-0-0---2-2-2-2-2-2-2-2-|-4-4-4-4-4-4-4-4---5------5--------|
A:|-----------------------------------|-----------------------------------|
D:|-----------------------------------|-----------------------------------|

Guitar 2 (Palm mute)
E:|-----------------------------------|-----------------------------------|
B:|-----------------------------------|-----------------------------------|
G:|-----------------------------------|-----------------------------------|
D:|---0---0---0---0---0---0---0---0---|---0---0---0---0---0---0---0---0---|
A:|---0---0---0---0---0---0---0---0---|---0---0---0---0---0---0---0---0---|
D:|---0---0---0---0---0---0---0---0---|---0---0---0---0---0---0---0---0---|

Guitar 1
E:|-----------------------------------|-----------------------------------|
B:|-----------------------------------|-----------------------------------|
G:|--7----------7-----9-----------9---|---11--------11----12----11---12---|
D:|-------(0)---------------(0)-------|-------(0)-------------------------|
A:|-----------------------------------|-----------------------------------|
D:|-----------------------------------|-----------------------------------|

Guitar 2 (Palm mute)
E:|-----------------------------------|-----------------------------------|
B:|-----------------------------------|-----------------------------------|
G:|-----------------------------------|-----------------------------------|
D:|---5---5---5---5---5---5---5---5---|---5---5---5---5---5---5---5---5---|
A:|---5---5---5---5---5---5---5---5---|---5---5---5---5---5---5---5---5---|
D:|---5---5---5---5---5---5---5---5---|---5---5---5---5---5---5---5---5---|

Guitar 1
E:|-10-10-10-10-10-10-10-10-9-9-9-9-9-9-9-9-|-7-7-7-7-7-7-7-7-5-5-5-5-5-5-5-5-|
B:|-----------------------------------------|---------------------------------|
G:|-----------------------------------------|---------------------------------|
D:|-----------------------------------------|---------------------------------|
A:|-----------------------------------------|---------------------------------|
D:|-----------------------------------------|---------------------------------|

Guitar 2 (Palm mute)
E:|-----------------------------------|-----------------------------------|
B:|-----------------------------------|-----------------------------------|
G:|-----------------------------------|-----------------------------------|
D:|---7---7---7---7---7---7---7---7---|---7---7---7---7---7---7---7---7---|
A:|---7---7---7---7---7---7---7---7---|---7---7---7---7---7---7---7---7---|
D:|---7---7---7---7---7---7---7---7---|---7---7---7---7---7---7---7---7---|

Guitar 1
E:|-(0)------(0)----------(0)---------|--------(0)-------(0)-----(0)------|
B:|--8--------7------------5----------|---------3---------2-------0-------|
G:|-----------------------------------|-----------------------------------|
D:|-----------------------------------|-----------------------------------|
A:|-----------------------------------|-----------------------------------|
D:|-----------------------------------|-----------------------------------|

Guitar 2
E:|-----------------------------------|-----------------------------------|
B:|-----------------------------------|-----------------------------------|
G:|-----------------------------------|-----------------------------------|
D:|-7--------7------------7-----------|---------7---------7-------7-------|
A:|-7--------7------------7-----------|---------7---------7-------7-------|
D:|-7--------7------------7-----------|---------7---------7-------7-------|

Verse (Palm mute all guitars)
Guitar 1
E:|-5---5---5---5---|-5---5---5---5---|-----------------|-----------------|
B:|---5---5---5---5-|---5---5---5---5-|-----------------|-----------------|
G:|-----------------|-----------------|-----------------|-----------------|
D:|-----------------|-----------------|-----------------|-----------------|
A:|-----------------|-----------------|-----------------|-----------------|
D:|-----------------|-----------------|-7-7-7-7-7-7-7-7-|-7-7-7-7-7-7-7-7-|

Guitar 1
E:|-----------------|-----------------|-----------------|-----------------|
B:|-----------------|-----------------|-----------------|-----------------|
G:|-----------------|-----------------|-----------------|-----------------|
D:|-----------------|-----------------|-----------------|-----------------|
A:|-----------------|-----------------|-----------------|-----------------|
D:|-5-5-5-5-5-5-5-5-|-5-5-5-5-5-5-5-5-|-0-0-0-0-0-0-0-0-|-0-0-0-0-0-0-0-0-|

Guitar 1
E:|-----------------|-----------------|-----------------|-----------------|
B:|-----------------|-----------------|-----------------|-----------------|
G:|-----------------|-----------------|-----------------|-----------------|
D:|-----------------|-----------------|-----------------|-----------------|
A:|-----------------|-----------------|-----------------|-----------------|
D:|-0-0-0-0-0-0-0-0-|-0-0-0-0-0-0-0-0-|-7-7-7-7-7-7-7-7-|-7-7-7-7-7-7-7-7-|

Guitar 2
E:|-----------------|-----------------|-----------------|-----------------|
B:|-----------------|-----------------|-----------------|-----------------|
G:|-7-7-7-7-7-7-7-7-|-7-7-7-7-7-7-7-7-|-7-7-7-7-7-7-7-7-|-7-7-7-7-7-7-7-7-|
D:|-0-0-0-0-0-0-0-0-|-0-0-0-0-0-0-0-0-|-0-0-0-0-0-0-0-0-|-0-0-0-0-0-0-0-0-|
A:|-----------------|-----------------|-----------------|-----------------|
D:|-----------------|-----------------|-----------------|-----------------|

Guitar 1
E:|-----------------|-----------------|-----------------|-----------------|
B:|-----------------|-----------------|-----------------|-----------------|
G:|-----------------|-----------------|-----------------|-----------------|
D:|-----------------|-----------------|-----------------|-----------------|
A:|-----------------|-----------------|-----------------|-----------------|
D:|-5-5-5-5-5-5-5-5-|-5-5-5-5-5-5-5-5-|-0-0-0-0-0-0-0-0-|-0-0-0-0-0-0-0-0-|

Guitar 2
E:|-----------------|-----------------|-----------------|-----------------|
B:|-----------------|-----------------|-----------------|-----------------|
G:|-4-4-2-2-2-2-2-2-|-2-2-2-2-2-2-2-2-|-7-7-7-7-7-7-7-7-|-7-7-7-7-7-7-7-7-|
D:|-0-0-0-0-0-0-0-0-|-0-0-0-0-0-0-0-0-|-0-0-0-0-0-0-0-0-|-0-0-0-0-0-0-0-0-|
A:|-----------------|-----------------|-----------------|-----------------|
D:|-----------------|-----------------|-----------------|-----------------|

Chorus
Guitar 1
E:|-----------------|-----------------|-----------------|-----------------|
B:|---3-3----3---3--|---3-3------3-3--|---2-2----2----2-|---2-2-----2-2---|
G:|---2-2----2---2--|---2-2------2-2--|---2-2----2----2-|---2-2-----2-2---|
D:|---0-0----0---0--|---0-0------0-0--|---2-2----2----2-|---2-2-----2-2---|
A:|---0-0----0---0--|---0-0------0-0--|---0-0----0----0-|---0-0-----0-0---|
D:|---0-0----0---0--|---0-0------0-0--|-----------------|-----------------|

Guitar 1
E:|-----------------|-----------------|-----------------|-----------------|
B:|---8-8----8---8--|---8-7------8-8--|-3---3-3---3--3--|---3-3----3---3--|
G:|---7-7----7---7--|---7-7------7-7--|-2---2-2---2--2--|---2-2----2---2--|
D:|---5-5----5---5--|---5-5------5-5--|-0---0-0---0--0--|---0-0----0---0--|
A:|---5-5----5---5--|---5-5------5-5--|-0---0-0---0--0--|---0-0----0---0--|
D:|---5-5----5---5--|---5-5------5-5--|-0---0-0---0--0--|---0-0----0---0--|

Guitar 1
E:|-----------------|-----------------|-----------------|-----------------|
B:|---3-3----3---3--|---3-3------3-3--|---2-2----2----2-|---2-2-----2-2---|
G:|---2-2----2---2--|---2-2------2-2--|---2-2----2----2-|---2-2-----2-2---|
D:|---0-0----0---0--|---0-0------0-0--|---2-2----2----2-|---2-2-----2-2---|
A:|---0-0----0---0--|---0-0------0-0--|---0-0----0----0-|---0-0-----0-0---|
D:|---0-0----0---0--|---0-0------0-0--|-----------------|-----------------|

Guitar 1
E:|-----------------|-----------------|-----------------|
B:|---8-8----8---8--|---8-7------8-8--|-3---3-3---3--3--|
G:|---7-7----7---7--|---7-7------7-7--|-2---2-2---2--2--|
D:|---5-5----5---5--|---5-5------5-5--|-0---0-0---0--0--|
A:|---5-5----5---5--|---5-5------5-5--|-0---0-0---0--0--|
D:|---5-5----5---5--|---5-5------5-5--|-0---0-0---0--0--|

End of song

-------------------------------------------------------------------------

On verses two and three this is played:
Guitar 3 (Barely audible, you don’t even need to play it)
E:|---5---5---5---5-|---5---5-7-5---5-|---5---5---5---5-|---5---5-7-5---5-|
B:|-3---3---3---3---|-3---3-------3---|-3---3---3---3---|-3---3-------3---|
G:|-----------------|-----------------|-----------------|-----------------|
D:|-----------------|-----------------|-----------------|-----------------|
A:|-----------------|-----------------|-----------------|-----------------|
D:|-----------------|-----------------|-----------------|-----------------| x4

(0)- Ghost note
 h - Hammer on
 P – Pull off
comments
We did not receive enough feedback on this tab! Please rate:
print report bad tab
1 2 3 4 5
I want to post or [tab]
guest
You may want to rate the tab now too:
select rating
Please do not post tabs as comments. Select "correction" instead!