Oops, an error
Loading. Please wait.

Work Tab

ver1
ver1

Solo

Whole song

Interactive

More versions @911Tabs.com
28,219 views 15 this week
3 commentsread comments
1 2 3 4 5
accurate
x 14
Autoscroll
+/-
esc
set tempo
stop
Contributor
Hey! There's an official Ultimate Guitar app which is ideal
for learning songs when you're away from computer. Get the app
WARNING: You are trying to view
                                    content from Ultimate-Guitar.com
                                    in an unauthorized application,
                                    which is prohibited.

                                    Please use an official Ultimate
                                    Guitar Tabs application for iPhone,
                                    iPad or Android to access legitimate
                                    chords, guitar, bass, and drum tabs
                                    from Ultimate-Guitar.com database.

                                    Type "ultimate guitar tabs" in Apple
                                    App Store's or Android Market's
                                    search to find the application.
Jimmy Eat World
"Work"

this is one of my favourite song on the new album, so
I wanted to tab it and I hope that this will help everyone a bit.
"Futures" is the first album that is all in played down half-a-step

first of all, tune down your guitar half a step and then drop-d
(actually a drop-C#...)

intro/verse

eb|-----------------------------------|
Bb|-----------------------------------|
F#|--------2-------2-----2---2---2----|
Db|------0-------0-----2---2---2---2--|
Ab|----4-------0-----0----------------|
Db|--4-------0------------------------|

If you only once would let me, only just one time
then be happy with the consequence with whatever's gonna happen tonight
Don't think we're not serious when's it ever not
The love we make is killing its take, a game to play along

eb|--------------------------------|
Bb|--------------------------------|
F#|--------------------------------|
Db|--4-4-4-4-4-4-4--2-2-2-2-2-2-2--|
Ab|--x-x-x-x-x-x-x--0-0-0-0-0-0-0--|
Db|--4-4-4-4-4-4-4--0-0-0-0-0-0-0--|

All I can say...

eb|--------------------------------|
Bb|--------------------------------|
F#|--------------------------------|
Db|--4-4-4-4-4-4-4-4--2-2-2-2-2-2--|
Ab|--4-4-4-4-4-4-4-4--0-0-0-0-0-0--|
Db|--4-4-4-4-4-4-4-4--0-0-0-0-0-0--|

I should of said 

              A5
can we take a ride?
           E5		       F#5
Get out of this place while we still have time

Guitar 1
eb|------------------|
Bb|------------------|
F#|------------------|
Db|--7-7-7----7-7-7--|
Ab|--7-7-7----7-7-7--|
Db|--7-7-7----7-7-7--|


Guitar 2
eb|-------------------|
Bb|-------------------|
F#|--9-9-9----9-9/11--|
Db|--x-x-x----x-x/x---|
Ab|--7-7-7----7-7/9---|
Db|-------------------|

Repeat intro

(no guitar)
All the best Dj's are saving the slowest song for last

(repeat intro)
when the dance is through it's me and you
come on, would it really be so bad
The things we think might be the same but I won't falthom more
It's just not me to wear it on my sleeve, count on the for sure


F#5       D5 (e on 4th)
All I can say
F#          D5 (e on 4th)                A5	
I should of said,          can we take a ride?
	   E5		       F#5
Get out of this place while we still have time
D5		   A5
D'you wanna take a ride?
	   E5		       F#
Get out of this place while we still have time
	  D5
yeah - We still have time

SOLO

Can't say I was never wrong but some blame rests on you
Work and play but never okay to mix the way we do...

...................................

All the rest is too easy to understand and I'm too lazy to tab the solo
maybe I'll tab all the rest later,  now this is good to start with this
great song, go and get the new Jimmy Eat World record, they do it 
again, and that's a great album as always...
eNRICO
comments
print report bad tab
3 comments total.
0 reply
Erickd wrote on September 26 2004, 12:00 am

hope it was ok, but there are song with standard tuning on the album, I forgot it... 23 .. sorry

0 reply
sunburn wrote on December 24 2004, 12:00 am

SOLO:
eb-------------------------------------------------------------------------
Bb-----------------------------------------------7---7------------10-------
Gb--/9-9-9-9-9--7-6-7-6---------------/9-9-9-9-9---9---9--7--6-7------9----
Db----------------------7--6--7--9-----------------------------------------
Ab-------------------------------------------------------------------------
Db-------------------------------------------------------------------------

eb-------------------------------------------------------------------------
Bb----------------------------------------10-9-10-12-10--12-10-9-10-9------
Gb--/9-9-9-9-9-7-6-7-/9-9-9-9-9-7-6-7--/6-----------------------------11-9-
Db-------------------------------------------------------------------------
Ab-------------------------------------------------------------------------
Db-------------------------------------------------------------------------

0 reply
smitty_bang wrote on May 26 2007, 07:56 pm

why didnt you just put them listed as all flats :S

I want to post or [tab]
guest
You may want to rate the tab now too:
select rating
Please do not post tabs as comments. Select "correction" instead!