Oops, an error
Loading. Please wait.

World You Love Tab

ver1
ver1

Whole song

More versions @911Tabs.com
4,896 views 6 this week
1 commentread comment
1 2 3 4 5
worth learning
x 6
Autoscroll
+/-
esc
set tempo
stop
Contributor
Hey! There's an official Ultimate Guitar app which is ideal
for learning songs when you're away from computer. Get the app
WARNING: You are trying to view
                                    content from Ultimate-Guitar.com
                                    in an unauthorized application,
                                    which is prohibited.

                                    Please use an official Ultimate
                                    Guitar Tabs application for iPhone,
                                    iPad or Android to access legitimate
                                    chords, guitar, bass, and drum tabs
                                    from Ultimate-Guitar.com database.

                                    Type "ultimate guitar tabs" in Apple
                                    App Store's or Android Market's
                                    search to find the application.
Band: Jimmy Eat World
Song: The World You Love
Tabbed by: Shiruzu      
Email: letaldj@libero.it

Tuning: Drop C# (Db-Ab-Db-F#-Bb-eb)

Verse

Guitar 1: (not the exact amount)

eb|---------------------------------------------------------------|
Bb|---------------------------------------------------------------|
F#|---------------------------------------------------------------|
Db|---------------------------------------------------------------|
Ab|---------------------777-555555555555555-444-------------------|
Db|--777777777777777777-------------------------7777777777777777--|

eb|---------------------------------------------------------------|
Bb|---------------------------------------------------------------|
F#|---------------------------------------------------------------|
Db|---------------------------------------------------------------|
Ab|---------------------777-555555555555555555555555555555555555--|
Db|--777777777777777777-------------------------------------------|


Guitar 2:clean
eb|-----------------------------------------------------------|x4
Bb|-----------------------------------------------------------|
F#|-----------------------------------------------------------|
Db|----------7-----7-----7-----------------7----7----7--------|
Ab|----7-------7-----7-----7---7----7--------7----7----7---7--|
Db|--7----7------7-----7-----7----7----7-------7----7----7----|

I got a story it's almost finished
all i need is someone to tell it to
maybe, that's you.

our time is borrowed and spent to freely
every minute i have needs to be made up
but how?

Pre-Chorus

Guitar 1: (not the exact amount)

eb|----------------------------------------------------|
Bb|----------------------------------------------------|
F#|----------------------------------------------------|
Db|----------------------------------------------------|
Ab|--999999999999999999999999-55555555555555555555555--|
Db|----------------------------------------------------|

Guitar 2:clean
eb|-----------------------------------------------------------|
Bb|-----------------------------------------------------------|
F#|----------6-----6-----6------------------------------------|
Db|----------------------------------------7----7----7--------|
Ab|----7-------7-----7-----7---7----7--------7----7----7---7--|
Db|--7----7------7-----7-----7----7----7-------7----7----7----|

i'm looking for a nice way to say
"i'm out".
i want out.

Guitar 1: play this riff on the last "out"
    A5
eb|------------------------------|
Bb|------------------------------|
F#|------------------------------|
Db|-7777777777777777777777777777-|
Ab|-7777777777777777777777777777-|
Db|-7777777777777777777777777777-|

Verse 2

Guitar 1:
   
    A5                 D5                  The first time play also this
eb|------------------------------------|x2|------------------|
Bb|------------------------------------|  |------------------|
F#|--------------------7777777777777777|  |------------------|
Db|-77777777777777777--7777777777777777|  |-7777777777777777-|
Ab|-77777777777777777--5555555555555555|  |-7777777777777777-|
Db|-77777777777777777------------------|  |-7777777777777777-|
    .................  ................     ................

A5
i fall asleep with my friends around me
                           D5  
the only place i know, i feel safe
                     A5
i'm gonna call this home
A5
the open road is still miles away

Hey nothing serious
          D5
we still have our fun

oh we had it once

Pre-Chorus 2

Guitar 1: Palm mute this chords during pre-chorus
   
    F#5                D5
eb|--------------------------------------|
Bb|--------------------------------------|
F#|--------------------7777777777777777--|
Db|-44444444444444444--7777777777777777--|
Ab|-44444444444444444--5555555555555555--|
Db|-44444444444444444--------------------|
    .................  ................

Guitar 2: 
eb|----------------------------------------------------|
Bb|----------------------------------------------------|
F#|---------14-----------14-----------14---------------|
Db|-11-12-11-----11-12-11-----11-12-11--------11-12-11-|
Ab|----------------------------------------------------|
Db|----------------------------------------------------|

F#5
but Windows open and close
                D5
that's just how it goes

Chorus

Guitar 1:
   A5                 D5                F#5             D5
eb|--------------------------------------------------------------------|
Bb|--------------------------------------------------------------------|
F#|--------------------7777777777777777-----------------77777777777777-|
Db|-77777777777777777--7777777777777777-444444444444444-77777777777777-|
Ab|-77777777777777777--5555555555555555-444444444444444-55555555555555-|
Db|-77777777777777777-------------------444444444444444----------------|

    A5
eb|------------------------------|
Bb|------------------------------|
F#|------------------------------|
Db|-7777777777777777777777777777-|
Ab|-7777777777777777777777777777-|
Db|-7777777777777777777777777777-|

Guitar 2: At the end of the chorus play this riff

eb|----------------------------------------------------|
Bb|-------12-12--------12-12--------12-12--------12-12-|
F#|----------------------------------------------------|
Db|-14-14--------14-14--------14-14--------14-14-------|
Ab|----------------------------------------------------|
Db|----------------------------------------------------|
         A5
don't it feel like sunshine after all
  D5
the world we thought forever gone
     F#5
we're only just as happy
   D5                               A5
as everyone else seems to think we are

Verse 3

Guitar 1: same as verse 2

A5
i'm in love with the ordinary

i need a simple space
             D5
and rest my head
                     A5
and everything gets clear
A5
well i'm a little ashamed for asking
                    
but just a little helps 
              D5
it gets me straight again

helps me get over it (over it)

Pre-Chorus 3

Guitar 1: same as pre-chorus 2

Guitar 2: 
eb|--------------------------------------------------------------|
Bb|--------------------------------------------------------------|
F#|---------14-----------14-----------14----------14-------------|
Db|-11-12-11-----11-12-11-----11-12-11----11-12-11------11-12-11-|
Ab|--------------------------------------------------------------|
Db|--------------------------------------------------------------|

F#5
it might seem like a dream
           D5
but it's real to me

Chorus 2

Guitar 1:

eb|--------------------------------------------------------------------|
Bb|--------------------------------------------------------------------|
F#|--------------------7777777777777777-----------------77777777777777-|
Db|-77777777777777777--7777777777777777-444444444444444-77777777777777-|
Ab|-77777777777777777--5555555555555555-444444444444444-55555555555555-|
Db|-77777777777777777-------------------444444444444444----------------|

eb|------------------------------|
Bb|------------------------------|
F#|------------------------------|
Db|-7777777777777777777777777777-|
Ab|-7777777777777777777777777777-|
Db|-7777777777777777777777777777-|


Guitar 2: Same riff

eb|----------------------------------------------------|
Bb|-------12-12--------12-12--------12-12--------12-12-|
F#|----------------------------------------------------|
Db|-14-14--------14-14--------14-14--------14-14-------|
Ab|----------------------------------------------------|
Db|----------------------------------------------------|

         A5
don't it feel like the sunshine after all
  D5
the world we thought forever gone
     F#5
we're only just as happy
   D5                               A5
as everyone else seems to think we are


Solo

Guitar 1:

    A5                 F#5              Em              D5
eb|--------------------------------------------------------------------|x2
Bb|--------------------------------------------------------------------|
F#|--------------------------------------------------------------------|
Db|-77777777777777777--444444444444444--22222222222222--00000000000000-|
Ab|-77777777777777777--444444444444444--22222222222222--00000000000000-|
Db|-77777777777777777--444444444444444--22222222222222--00000000000000-|



Guitar 2: Solo

        A5                               F#5    
eb|-----------------------------------------------------------------------|
Bb|-----------------------------------------------------------------------|
F#|---14-13---14------14-13---14------14-13-------------14-13-------------|
Db|--------------14--------------14-----------16-16\------------16-16\----|
Ab|-----------------------------------------------------------------------|
Db|-----------------------------------------------------------------------|

          Em                               D5
eb|-----------------------------------------------------------------------|
Bb|-----------------------------------------------------------------------|
F#|---14-13---14------14-13---14------------------------------------------|
Db|--------------14--------------14-----14h16---14h16---14h16---14h16-----|
Ab|-----------------------------------------------------------------------|
Db|-----------------------------------------------------------------------|

         A5                           F#5                         Em
eb|-----------------------------------------------------------------------|
Bb|-10-9---10------10-9---10------10-9----------10-9----------10-9---10---|
F#|-----------9--------------9---------11-11---------11-11--------------9-|
Db|-----------------------------------------------------------------------|
Ab|-----------------------------------------------------------------------|
Db|-----------------------------------------------------------------------|

                       D5                            
eb|-------------------------------------------------------------| end on A5
Bb|---10-9---10---------------------12h14---12h14---14b15r14~---|
F#|-------------9----9h11---9h11--------------------------------|
Db|-------------------------------------------------------------|
Ab|-------------------------------------------------------------|
Db|-------------------------------------------------------------|

Verse 4

Guitar 1: (not the exact amount)

eb|-----------------------------------------------------------------------|
Bb|-----------------------------------------------------------------------|
F#|-----------------------------------------------------------------------|
Db|-----------------------------------------------------------------------|
Ab|------------------------------------7777-55555X555X555X555X555x555x555-|
Db|-777x777x777x777x777x777x777x777x777-----------------------------------|

Guitar 2: same as verse 1

you should see the canals are freezing
you should see me high
you should just be here
be with me here

Pre-Chorus 4

Guitar 1:

    F#5                D5
eb|--------------------------------------|x2
Bb|--------------------------------------|
F#|--------------------7777777777777777--|
Db|-44444444444444444--7777777777777777--|
Ab|-44444444444444444--5555555555555555--|
Db|-44444444444444444--------------------|
    .................  ................

Guitar 2:

eb|-----------------------------------------------------------|x2
Bb|-----------------------------------------------------------|
F#|----------6-----6-----6------------------------------------|
Db|----------------------------------------7----7----7--------|
Ab|----7-------7-----7-----7---7----7--------7----7----7---7--|
Db|--5----5------5-----5-----5----5----5-------5----5----5----|

F#5
it doesn't seem theres hope for me
       D5
i let you down
    F#5 
but i won't give in now
         D5
not for any amount

Chorus 3

Guitar 1

     D5      Don't it
eb|-------|
Bb|-------|
F#|--7-7--|
Db|--7-7--|
Ab|--5-5--|
Db|-------|
 
    A5                 D5               F#5             D5
eb|--------------------------------------------------------------------|x2 
Bb|--------------------------------------------------------------------|   
F#|--------------------7777777777777777-----------------77777777777777-|   
Db|-77777777777777777--7777777777777777-444444444444444-77777777777777-|   
Ab|-77777777777777777--5555555555555555-444444444444444-55555555555555-|   
Db|-77777777777777777-------------------444444444444444----------------|        

    A5                                                                        
eb|------------------------------|  
Bb|------------------------------|
F#|------------------------------| 
Db|-7777777777777777777777777777-|
Ab|-7777777777777777777777777777-|
Db|-7777777777777777777777777777-|                     

Guitar 2: at the 2nd time play this at "after all" and at "gone"

eb|-----------------------------------|
Bb|-----------------------------------|
F#|---14-13---14------14-13---14------|
Db|--------------14--------------14---|
Ab|-----------------------------------|
Db|-----------------------------------|

then play this 

eb|----------------------------|x2
Bb|----------------------------|
F#|---9h11--9h11--9h11--9h11---|
Db|----------------------------|
Ab|----------------------------|
Db|----------------------------|

At the end of the chorus play the same riff

eb|----------------------------------------------------|x2|------|
Bb|-------12-12--------12-12--------12-12--------12-12-|  |------|
F#|----------------------------------------------------|  |------|
Db|-14-14--------14-14--------14-14--------14-14-------|  |--14~-|
Ab|----------------------------------------------------|  |------|
Db|----------------------------------------------------|  |------|

A5
feel like sunshine after all
    D5
the world we thought forever gone
     F#5
we're only just as happy
   D5                           
as everyone else seems, don't that

A5
feel like sunshine after all
    D5
the world we thought forever gone
     F#5
we're only just as happy
   D5                                A5   
as everyone else seems to think we are

Here it is!hope it's correct!!
any question or comment,send it to letaldj@libero.it
comments
print report bad tab
1 comment total.
0 reply
QuantumMechanix wrote on September 29 2007, 03:38 pm

people were rating this really bad. Its not a bad tab, just a really simple song...i like it

I want to post or [tab]
guest
You may want to rate the tab now too:
select rating
Please do not post tabs as comments. Select "correction" instead!