Oops, an error
Loading. Please wait.

Your House Tab

ver2
ver2

Whole song

More versions @911Tabs.com
2,708 views 3 this week
1 commentread comment
1 2 3 4 5
excellent!
x 1
Autoscroll
+/-
esc
set tempo
stop
Contributor
WARNING: You are trying to view
                                    content from Ultimate-Guitar.com
                                    in an unauthorized application,
                                    which is prohibited.

                                    Please use an official Ultimate
                                    Guitar Tabs application for iPhone,
                                    iPad or Android to access legitimate
                                    chords, guitar, bass, and drum tabs
                                    from Ultimate-Guitar.com database.

                                    Type "ultimate guitar tabs" in Apple
                                    App Store's or Android Market's
                                    search to find the application.
Artist: Jimmy Eat World
Song: Your House 2007
Album: Bleed American (Deluxe Edition)
Tabbed by: Kmilongo (kmilo1989@gmail.com)

I tabbed this with the help of a live video.
The tuning for this song is Open Dsus4 (DAGDAD)

Intro

D||----------------------------------|----------------------------------|
A||--------0-------0-------0-------0-|--------0-------0-------0-------0-|
G||------2-------2-------2-------2---|------2-------2-------2-------2---|
D||----2-------2-------2-------2-----|----2-------2-------2-------2-----|
A||--0-------0-------0-------0-------|--0-------0-------0-------0-------|
D||----------------------------------|----------------------------------|


Verse

D||----------------------------------|----------------------------------|
A||--------0-------0-------0-------0-|--------0-------0-------0-------0-|
G||------2-------2-------2-------2---|------2-------2-------2-------2---|
D||----2-------2-------2-------2-----|----2-------2-------2-------2-----|
A||--0-------0-------0-------0-------|--0-------0-------0-------0-------|
D||----------------------------------|----------------------------------|

    "When you're on..."

----------------------------------|----------------------------------|
----------------------------------|----------------------------------|
--------2-------2-------1-------1-|--------2-------2-------2-------2-|
------0-------0-------0-------0---|------0-------0-------0-------0---|
----4-------4-------0-------0-----|----4-------4-------4-------4-----|
--4-------4-------2-------2-------|--0-------0-------0-------0-------|

  "Ohhh..."                                         "You rip my heart

----------------------------------|----------------------------------|
--------0-------0-------0-------0-|--------0-------0-------0-------0-|
------2-------2-------2-------2---|------2-------2-------2-------2---|
----2-------2-------2-------2-----|----2-------2-------2-------2-----|
--0-------0-------0-------0-------|--0-------0-------0-------0-------|
----------------------------------|----------------------------------|

  right out"                                        "I feel the whole

----------------------------------|----------------------------------|
--------0-------0-------0-------0-|--------0-------0-------0-------0-|
------2-------2-------2-------2---|------2-------2-------2-------2---|
----2-------2-------2-------2-----|----2-------2-------2-------2-----|
--0-------0-------0-------0-------|--0-------0-------0-------0-------|
----------------------------------|----------------------------------|

 room..."

----------------------------------|----------------------------------|
----------------------------------|----------------------------------|
--------2-------2-------1-------1-|--------2-------2-------2-------2-|
------0-------0-------0-------0---|------0-------0-------0-------0---|
----4-------4-------0-------0-----|----4-------4-------4-------4-----|
--4-------4-------2-------2-------|--0-------0-------0-------0-------|

----------------------------------|----------------------------------|
--------0-------0-------0-------0-|--------0-------0-------0-------0-|
------2-------2-------2-------2---|------2-------2-------2-------2---|
----2-------2-------2-------2-----|----2-------2-------2-------2-----|
--0-------0-------0-------0-------|--0-------0-------0-------0-------|
----------------------------------|----------------------------------|


Chorus

D||----------------------------------|----------------------------------|
A||----------------------------------|----------------------------------|
G||--------2-------2-------2-------2-|--------2-------2-------2-------2-|
D||------0-------0-------0-------0---|------0-------0-------0-------0---|
A||----4-------4-------4-------4-----|----4-------4-------4-------4-----|
D||--4-------4-------4-------4-------|--0-------0-------0-------0-------|

     "...still care at                  all"

----------------------------------|----------------------------------|
--------0-------0-------0-------0-|--------0-------0-------0-------0-|
------4-------4-------4-------4---|------1-------1-------1-------1---|
----2-------2-------2-------2-----|----2-------2-------2-------2-----|
--0-------0-------0-------0-------|----------------------------------|
----------------------------------|--2-------2-------2-------2-------|

  "Don't go, tell me                 now"

----------------------------------|----------------------------------|
----------------------------------|----------------------------------|
--------2-------2-------2-------2-|--------2-------2-------2-------2-|
------0-------0-------0-------0---|------0-------0-------0-------0---|
----4-------4-------4-------4-----|----4-------4-------4-------4-----|
--4-------4-------4-------4-------|--0-------0-------0-------0-------|


After Chorus

D||----------------------------------|----------------------------------|
A||--------0-------0-------0-------0-|--------0-------0-------0-------0-|
G||------2-------2-------2-------2---|------2-------2-------2-------2---|
D||----2-------2-------2-------2-----|----2-------2-------2-------2-----|
A||--0-------0-------0-------0-------|--0-------0-------0-------0-------|
D||----------------------------------|----------------------------------|

----------------------------------|----------------------------------|
--------0-------0-------0-------0-|--------0-------0-------0-------0-|
------1-------1-------1-------1---|------1-------1-------1-------1---|
----2-------2-------2-------2-----|----2-------2-------2-------2-----|
----------------------------------|----------------------------------|
--2-------2-------2-------2-------|--2-------2-------2-------2-------|


Verse

D||----------------------------------|----------------------------------|
A||--------0-------0-------0-------0-|--------0-------0-------0-------0-|
G||------2-------2-------2-------2---|------2-------2-------2-------2---|
D||----2-------2-------2-------2-----|----2-------2-------2-------2-----|
A||--0-------0-------0-------0-------|--0-------0-------0-------0-------|
D||----------------------------------|----------------------------------|

----------------------------------|----------------------------------|
----------------------------------|----------------------------------|
--------2-------2-------1-------1-|--------2-------2-------2-------2-|
------0-------0-------0-------0---|------0-------0-------0-------0---|
----4-------4-------0-------0-----|----4-------4-------4-------4-----|
--4-------4-------2-------2-------|--0-------0-------0-------0-------|

----------------------------------|----------------------------------|
--------0-------0-------0-------0-|--------0-------0-------0-------0-|
------2-------2-------2-------2---|------2-------2-------2-------2---|
----2-------2-------2-------2-----|----2-------2-------2-------2-----|
--0-------0-------0-------0-------|--0-------0-------0-------0-------|
----------------------------------|----------------------------------|

----------------------------------|----------------------------------|
--------0-------0-------0-------0-|----------------------------------|
------2-------2-------2-------2---|--------2-------2-------1-------1-|
----2-------2-------2-------2-----|------0-------0-------0-------0---|
--0-------0-------0-------0-------|----4-------4-------0-------0-----|
----------------------------------|--4-------4-------2-------2-------|

----------------------------------|----------------------------------|
----------------------------------|--------0-------0-------0-------0-|
--------2-------2-------2-------2-|------2-------2-------2-------2---|
------0-------0-------0-------0---|----2-------2-------2-------2-----|
----4-------4-------4-------4-----|--0-------0-------0-------0-------|
--0-------0-------0-------0-------|----------------------------------|

----------------------------------|
--------0-------0-------0-------0-|
------2-------2-------2-------2---|
----2-------2-------2-------2-----|
--0-------0-------0-------0-------|
----------------------------------|


Chorus

D||----------------------------------|----------------------------------|
A||----------------------------------|----------------------------------|
G||--------2-------2-------2-------2-|--------2-------2-------2-------2-|
D||------0-------0-------0-------0---|------0-------0-------0-------0---|
A||----4-------4-------4-------4-----|----4-------4-------4-------4-----|
D||--4-------4-------4-------4-------|--0-------0-------0-------0-------|

----------------------------------|----------------------------------|
--------0-------0-------0-------0-|--------0-------0-------0-------0-|
------4-------4-------4-------4---|------1-------1-------1-------1---|
----2-------2-------2-------2-----|----2-------2-------2-------2-----|
--0-------0-------0-------0-------|----------------------------------|
----------------------------------|--2-------2-------2-------2-------|

----------------------------------|----------------------------------|
----------------------------------|----------------------------------|
--------2-------2-------2-------2-|--------2-------2-------2-------2-|
------0-------0-------0-------0---|------0-------0-------0-------0---|
----4-------4-------4-------4-----|----4-------4-------4-------4-----|
--4-------4-------4-------4-------|--0-------0-------0-------0-------|

----------------------------------|----------------------------------|
--------0-------0-------0-------0-|--------0-------0-------0-------0-|
------4-------4-------4-------4---|------1-------1-------1-------1---|
----2-------2-------2-------2-----|----2-------2-------2-------2-----|
--0-------0-------0-------0-------|----------------------------------|
----------------------------------|--2-------2-------2-------2-------|

----------------------------------|----------------------------------|
----------------------------------|----------------------------------|
--------2-------2-------2-------2-|--------2-------2-------2-------2-|
------0-------0-------0-------0---|------0-------0-------0-------0---|
----4-------4-------4-------4-----|----4-------4-------4-------4-----|
--4-------4-------4-------4-------|--0-------0-------0-------0-------|

----------------------------------|----------------------------------|
--------0-------0-------0-------0-|--------0-------0-------0-------0-|
------4-------4-------4-------4---|------1-------1-------1-------1---|
----2-------2-------2-------2-----|----2-------2-------2-------2-----|
--0-------0-------0-------0-------|----------------------------------|
----------------------------------|--2-------2-------2-------2-------|

----------------------------------|----------------------------------|
----------------------------------|----------------------------------|
--------2-------2-------2-------2-|--------2-------2-------2-------2-|
------0-------0-------0-------0---|------0-------0-------0-------0---|
----4-------4-------4-------4-----|----4-------4-------4-------4-----|
--4-------4-------4-------4-------|--0-------0-------0-------0-------|


Bridge (not sure about the first part... feel free to correct!)

D||--0--0-0--0--0-0--0-0-0-0-0-0-|--0--0-0--0--0-0--0-0-0-0-0-0-|
A||--0--0-0--0--0-0--0-0-0-0-0-0-|--0--0-0--0--0-0--0-0-0-0-0-0-|
G||--2--2-2--2--2-2--2-2-2-2-2-2-|--2--2-2--2--2-2--2-2-2-2-2-2-|
D||--0--0-0--0--0-0--0-0-0-0-0-0-|--0--0-0--0--0-0--0-0-0-0-0-0-|
A||--4--4-4--4--4-4--4-4-4-4-4-4-|--4--4-4--4--4-4--4-4-4-4-4-4-|
D||--4--4-4--4--4-4--4-4-4-4-4-4-|--0--0-0--0--0-0--0-0-0-0-0-0-|

--0--0-0--0--0-0--0-0-0-0-0-0-|--0--0-0--0--0-0--0-0-0-0-0-0-|
--0--0-0--0--0-0--0-0-0-0-0-0-|--0--0-0--0--0-0--0-0-0-0-0-0-|
--2--2-2--2--2-2--2-2-2-2-2-2-|--2--2-2--2--2-2--2-2-2-2-2-2-|
--2--2-2--2--2-2--2-2-2-2-2-2-|--0--0-0--0--0-0--0-0-0-0-0-0-|
--0--0-0--0--0-0--0-0-0-0-0-0-|--4--4-4--4--4-4--4-4-4-4-4-4-|
------------------------------|--0--0-0--0--0-0--0-0-0-0-0-0-|

--0--0-0--0--0-0--0-0-0-0-0-0-|--0--0-0--0--0-0--0-0-0-0-0-0-|
--0--0-0--0--0-0--0-0-0-0-0-0-|--0--0-0--0--0-0--0-0-0-0-0-0-|
--2--2-2--2--2-2--2-2-2-2-2-2-|--2--2-2--2--2-2--2-2-2-2-2-2-|
--0--0-0--0--0-0--0-0-0-0-0-0-|--0--0-0--0--0-0--0-0-0-0-0-0-|
--4--4-4--4--4-4--4-4-4-4-4-4-|--4--4-4--4--4-4--4-4-4-4-4-4-|
--4--4-4--4--4-4--4-4-4-4-4-4-|--0--0-0--0--0-0--0-0-0-0-0-0-|

--0--0-0--0--0-0--0-0-0-0-0-0-|--0--0-0--0--0-0--0-0-0-0-0-0-|
--0--0-0--0--0-0--0-0-0-0-0-0-|--0--0-0--0--0-0--0-0-0-0-0-0-|
--2--2-2--2--2-2--2-2-2-2-2-2-|--2--2-2--2--2-2--2-2-2-2-2-2-|
--2--2-2--2--2-2--2-2-2-2-2-2-|--0--0-0--0--0-0--0-0-0-0-0-0-|
--0--0-0--0--0-0--0-0-0-0-0-0-|--4--4-4--4--4-4--4-4-4-4-4-4-|
------------------------------|--0--0-0--0--0-0--0-0-0-0-0-0-|

--2--2-2--2-2-2-2--2-2--2-2-2-|--4--4-4--4-4-4-0--0-0--0-0-0-|
--2--2-2--2-2-2-2--2-2--2-2-2-|--4--4-4--4-4-4-0--0-0--0-0-0-|
--4--4-4--4-4-4-4--4-4--4-4-4-|--6--6-6--6-6-6-2--2-2--2-2-2-|
--2--2-2--2-2-2-2--2-2--2-2-2-|--4--4-4--4-4-4-0--0-0--0-0-0-|
--2--2-2--2-2-2-2--2-2--2-2-2-|--4--4-4--4-4-4-4--4-4--4-4-4-|
--2--2-2--2-2-2-2--2-2--2-2-2-|--4--4-4--4-4-4-0--0-0--0-0-0-|

  "I throw away..."              "I've written you"

--2--2-2--2-2-2-2--2-2--2-2-2-|--4--4-4--4-4-4-0--0-0--0-0-0-|
--2--2-2--2-2-2-2--2-2--2-2-2-|--4--4-4--4-4-4-0--0-0--0-0-0-|
--4--4-4--4-4-4-4--4-4--4-4-4-|--6--6-6--6-6-6-2--2-2--2-2-2-|
--2--2-2--2-2-2-2--2-2--2-2-2-|--4--4-4--4-4-4-0--0-0--0-0-0-|
--2--2-2--2-2-2-2--2-2--2-2-2-|--4--4-4--4-4-4-4--4-4--4-4-4-|
--2--2-2--2-2-2-2--2-2--2-2-2-|--4--4-4--4-4-4-0--0-0--0-0-0-|

--2--2-2--2-2-2-2--2-2--2-2-2-|--4--4-4--4-4-4-0--0-0--0-0-0-|
--2--2-2--2-2-2-2--2-2--2-2-2-|--4--4-4--4-4-4-0--0-0--0-0-0-|
--4--4-4--4-4-4-4--4-4--4-4-4-|--6--6-6--6-6-6-2--2-2--2-2-2-|
--2--2-2--2-2-2-2--2-2--2-2-2-|--4--4-4--4-4-4-0--0-0--0-0-0-|
--2--2-2--2-2-2-2--2-2--2-2-2-|--4--4-4--4-4-4-4--4-4--4-4-4-|
--2--2-2--2-2-2-2--2-2--2-2-2-|--4--4-4--4-4-4-0--0-0--0-0-0-|

--2--2-2--2-2-2-2--2-2--2-2-2-|--2--2-2--2-2-2-2--2-2--2-2-2-|
--2--2-2--2-2-2-2--2-2--2-2-2-|--2--2-2--2-2-2-2--2-2--2-2-2-|
--4--4-4--4-4-4-4--4-4--4-4-4-|--4--4-4--4-4-4-4--4-4--4-4-4-|
--2--2-2--2-2-2-2--2-2--2-2-2-|--2--2-2--2-2-2-2--2-2--2-2-2-|
--2--2-2--2-2-2-2--2-2--2-2-2-|--2--2-2--2-2-2-2--2-2--2-2-2-|
--2--2-2--2-2-2-2--2-2--2-2-2-|--2--2-2--2-2-2-2--2-2--2-2-2-|

  "Sometimes I wish..."


Verse

D||-------------------|
A||--0----------------|
G||--2----------------|
D||--2----------------|
A||--0-(hold)---------|
D||-------------------|

----------------------------------|----------------------------------|
----------------------------------|----------------------------------|
--------2-------2-------1-------1-|--------2-------2-------2-------2-|
------0-------0-------0-------0---|------0-------0-------0-------0---|
----4-------4-------0-------0-----|----4-------4-------4-------4-----|
--4-------4-------2-------2-------|--0-------0-------0-------0-------|

----------------------------------|----------------------------------|
--------0-------0-------0-------0-|--------0-------0-------0-------0-|
------2-------2-------2-------2---|------2-------2-------2-------2---|
----2-------2-------2-------2-----|----2-------2-------2-------2-----|
--0-------0-------0-------0-------|--0-------0-------0-------0-------|
----------------------------------|----------------------------------|

----------------------------------|----------------------------------|
--------0-------0-------0-------0-|----------------------------------|
------2-------2-------2-------2---|--------2-------2-------1-------1-|
----2-------2-------2-------2-----|------0-------0-------0-------0---|
--0-------0-------0-------0-------|----4-------4-------0-------0-----|
----------------------------------|--4-------4-------2-------2-------|

----------------------------------|----------------------------------|
----------------------------------|--------0-------0-------0-------0-|
--------2-------2-------2-------2-|------2-------2-------2-------2---|
------0-------0-------0-------0---|----2-------2-------2-------2-----|
----4-------4-------4-------4-----|--0-------0-------0-------0-------|
--0-------0-------0-------0-------|----------------------------------|

----------------------------------|
--------0-------0-------0-------0-|
------2-------2-------2-------2---|
----2-------2-------2-------2-----|
--0-------0-------0-------0-------|
----------------------------------|


Chorus

D||--0--0-0--0--0-0--0-0-0-0-0-0-|--0--0-0--0--0-0--0-0-0-0-0-0-|
A||--0--0-0--0--0-0--0-0-0-0-0-0-|--0--0-0--0--0-0--0-0-0-0-0-0-|
G||--2--2-2--2--2-2--2-2-2-2-2-2-|--2--2-2--2--2-2--2-2-2-2-2-2-|
D||--0--0-0--0--0-0--0-0-0-0-0-0-|--0--0-0--0--0-0--0-0-0-0-0-0-|
A||--4--4-4--4--4-4--4-4-4-4-4-4-|--4--4-4--4--4-4--4-4-4-4-4-4-|
D||--4--4-4--4--4-4--4-4-4-4-4-4-|--0--0-0--0--0-0--0-0-0-0-0-0-|

------------------------------|--2--2-2--2--2-2--2-2-2-2-2-2-|
--0--0-0--0--0-0--0-0-0-0-0-0-|--2--2-2--2--2-2--2-2-2-2-2-2-|
--2--2-2--2--2-2--2-2-2-2-2-2-|--4--4-4--4--4-4--4-4-4-4-4-4-|
--2--2-2--2--2-2--2-2-2-2-2-2-|--2--2-2--2--2-2--2-2-2-2-2-2-|
--0--0-0--0--0-0--0-0-0-0-0-0-|--2--2-2--2--2-2--2-2-2-2-2-2-|
------------------------------|--2--2-2--2--2-2--2-2-2-2-2-2-|

--0--0-0--0--0-0--0-0-0-0-0-0-|--0--0-0--0--0-0--0-0-0-0-0-0-|
--0--0-0--0--0-0--0-0-0-0-0-0-|--0--0-0--0--0-0--0-0-0-0-0-0-|
--2--2-2--2--2-2--2-2-2-2-2-2-|--2--2-2--2--2-2--2-2-2-2-2-2-|
--0--0-0--0--0-0--0-0-0-0-0-0-|--0--0-0--0--0-0--0-0-0-0-0-0-|
--4--4-4--4--4-4--4-4-4-4-4-4-|--4--4-4--4--4-4--4-4-4-4-4-4-|
--4--4-4--4--4-4--4-4-4-4-4-4-|--0--0-0--0--0-0--0-0-0-0-0-0-|

------------------------------|--2--2-2--2--2-2--2-2-2-2-2-2-|
--0--0-0--0--0-0--0-0-0-0-0-0-|--2--2-2--2--2-2--2-2-2-2-2-2-|
--2--2-2--2--2-2--2-2-2-2-2-2-|--4--4-4--4--4-4--4-4-4-4-4-4-|
--2--2-2--2--2-2--2-2-2-2-2-2-|--2--2-2--2--2-2--2-2-2-2-2-2-|
--0--0-0--0--0-0--0-0-0-0-0-0-|--2--2-2--2--2-2--2-2-2-2-2-2-|
------------------------------|--2--2-2--2--2-2--2-2-2-2-2-2-|

--0--0-0--0--0-0--0-0-0-0-0-0-|--0--0-0--0--0-0--0-0-0-0-0-0-|
--0--0-0--0--0-0--0-0-0-0-0-0-|--0--0-0--0--0-0--0-0-0-0-0-0-|
--2--2-2--2--2-2--2-2-2-2-2-2-|--2--2-2--2--2-2--2-2-2-2-2-2-|
--0--0-0--0--0-0--0-0-0-0-0-0-|--0--0-0--0--0-0--0-0-0-0-0-0-|
--4--4-4--4--4-4--4-4-4-4-4-4-|--4--4-4--4--4-4--4-4-4-4-4-4-|
--4--4-4--4--4-4--4-4-4-4-4-4-|--0--0-0--0--0-0--0-0-0-0-0-0-|

------------------------------|--2--2-2--2--2-2--2-2-2-2-2-2-|
--0--0-0--0--0-0--0-0-0-0-0-0-|--2--2-2--2--2-2--2-2-2-2-2-2-|
--2--2-2--2--2-2--2-2-2-2-2-2-|--4--4-4--4--4-4--4-4-4-4-4-4-|
--2--2-2--2--2-2--2-2-2-2-2-2-|--2--2-2--2--2-2--2-2-2-2-2-2-|
--0--0-0--0--0-0--0-0-0-0-0-0-|--2--2-2--2--2-2--2-2-2-2-2-2-|
------------------------------|--2--2-2--2--2-2--2-2-2-2-2-2-|

--0--0-0--0--0-0--0-0-0-0-0-0-|--0--0-0--0--0-0--0-0-0-0-0-0-|
--0--0-0--0--0-0--0-0-0-0-0-0-|--0--0-0--0--0-0--0-0-0-0-0-0-|
--2--2-2--2--2-2--2-2-2-2-2-2-|--2--2-2--2--2-2--2-2-2-2-2-2-|
--0--0-0--0--0-0--0-0-0-0-0-0-|--0--0-0--0--0-0--0-0-0-0-0-0-|
--4--4-4--4--4-4--4-4-4-4-4-4-|--4--4-4--4--4-4--4-4-4-4-4-4-|
--4--4-4--4--4-4--4-4-4-4-4-4-|--0--0-0--0--0-0--0-0-0-0-0-0-|


End

D||--------------------------------|-----------------2--------|
A||--0-0-0-0--0-0-0-0-0-0-0--0-0-0-|--0-0-0-0--0-0-0-2--------|
G||--2-2-2-2--2-2-2-2-2-2-2--2-2-2-|--2-2-2-2--2-2-2-2--------|
D||--2-2-2-2--2-2-2-2-2-2-2--2-2-2-|--2-2-2-2--2-2-2-2--------|
A||--0-0-0-0--0-0-0-0-0-0-0--0-0-0-|--0-0-0-0--0-0-0-0 (hold)-|
D||--------------------------------|--------------------------|

Corrections? Feel free to comment, but be polite or die! :)
comments
We did not receive enough feedback on this tab! Please rate:
print report bad tab
1 2 3 4 5
1 comment total.
0 reply
kmilongo wrote on September 30 2008, 10:51 am

okay, okay, the bridge is totally off. I'll fix it when I have some free time.

I want to post or [tab]
guest
You may want to rate the tab now too:
select rating
Please do not post tabs as comments. Select "correction" instead!