Oops, an error
Loading. Please wait.

Shake My Tree Tab

2,520 views 1 this week
1 commentread comment
1 2 3 4 5
excellent!
x 2
Autoscroll
+/-
esc
set tempo
stop
Contributor
WARNING: You are trying to view
                                    content from Ultimate-Guitar.com
                                    in an unauthorized application,
                                    which is prohibited.

                                    Please use an official Ultimate
                                    Guitar Tabs application for iPhone,
                                    iPad or Android to access legitimate
                                    chords, guitar, bass, and drum tabs
                                    from Ultimate-Guitar.com database.

                                    Type "ultimate guitar tabs" in Apple
                                    App Store's or Android Market's
                                    search to find the application.
Song: Shake My Tree
Artist: Jimmy Page & David Coverdale
Tunning: standard
Tabbed By: INDIE NATION 


Words and Music by Jimmy Page & David Coverdale

Gtr I , V (E A D G B E) - 'Acoustic'
Gtr II (E A D G B E) - 'clean electric (doubles Gtr I)'
Gtr III , IV (E A D G B E) - 'dirty electric'

Intro
  Q=124
 4/4
  Gtrs I, II
  S S S S S S S S S S S S S E.
|------------------------------|
|-5p0-0-3p0-0-5p0-0-3p0-0------|
|-------------------------2p1--|
|------------------------------|
|------------------------------|
|------------------------------|


  S S S S S S S S S S S S S S E   E E a E S S +S  S E E E
|-------------------------------|---------------------------|
|-5p0-0-3p0-0-5p0-0-3p0-0-------|---------3p0-(0)-3p0-0-----|
|-------------------------2p1---|-1-2-2s4-------------------|
|-----------------------------2-|-----------------------2---|
|-------------------------------|---------------------------|
|-------------------------------|---------------------------|


  E E a E S S +S  S E Q    S S S S S S S S S S S S S E.
|------------------------|------------------------------|
|---------3p0-(0)-3p0-0--|-5p0-0-3p0-0-5p0-0-3p0-0------|
|-1-2-2s4----------------|-------------------------2p1--|
|------------------------|------------------------------|
|------------------------|------------------------------|
|------------------------|------------------------------|


  S S S S S S S S S S S S S S E
|-------------------------------|
|-5p0-0-3p0-0-5p0-0-3p0-0-------|
|-------------------------2p1---|
|-----------------------------2-|
|-------------------------------|
|-------------------------------|


  E E a E S S +S  S E E E   E E a E S S +S  S E Q
|-------------------------|------------------------||
|---------3p0-(0)-3p0-0---|---------3p0-(0)-3p0-0--||
|-1-2-2s4-----------------|-1-2-2s4----------------||
|-----------------------2-|------------------------||
|-------------------------|------------------------||
|-------------------------|------------------------||


 Verse 1
           ~~~~~~                   ~~~~~~
  E. S +E  E +E  E E E   a E. S +E  E +E  E E E
|----------------------|------------------------|
|-5--3-(3)-5-(5)-3-----|-3s5--3-(3)-5-(5)-3-----|
|------------------2-1-|--------------------2-1-|
|----------------------|------------------------|
|----------------------|------------------------|
|----------------------|------------------------|



             ~~~~~~
  a E. S +E  E +E  E E E   a E. S +E  E +E  E E E
|------------------------|------------------------|
|-3s5--3-(3)-5-(5)-3-----|-3s5--3-(3)-5-(5)-------|
|--------------------2-1-|--------------------1-2-|
|------------------------|------------------2-----|
|------------------------|------------------------|
|------------------------|------------------------|
|
| Gtr IV
|   W                        H           E  E E E
|------------------------|------------------------|
|------------------------|------------------------|
|------------------------|------------------------|
|------------------------|------------------------|
|------------------------|------------------------|
|------------------------|------------------0-4-5-|


                           3/4
  Gtrs I,II, III
  a E S S +S  S E E E E E   a E S S +S  S E Q
|-------------------------|--------------------|
|-----3p0-(0)-3p0-0-------|-----3p0-(0)-3p0-0--|
|-2s4-----------------1-2-|-2s4----------------|
|-------------------2-----|--------------------|
|-------------------------|--------------------|
|-------------------------|--------------------|
|
| Gtr IV
| a E S S +S  S E E E E E   a E S S +S  S E Q
|-------------------------|--------------------|
|-------------------------|--------------------|
|-------------------------|--------------------|
|-------------------------|--------------------|
|-----5-------5-----------|-----5-------5------|
|-5s7---7-(7)---7-7-0-4-5-|-5s7---7-(7)---7-7--|


 4/4
  Gtrs I, II
           ~~~~~~                   ~~~~~~                   ~~~~~~
  E. S +E  E +E  E E E   a E. S +E  E +E  E E E   a E. S +E  E +E  E E E
|----------------------|------------------------|------------------------|
|-5--3-(3)-5-(5)-3-----|-3s5--3-(3)-5-(5)-3-----|-3s5--3-(3)-5-(5)-3-----|
|------------------2-1-|--------------------2-1-|--------------------2-1-|
|----------------------|------------------------|------------------------|
|----------------------|------------------------|------------------------|
|----------------------|------------------------|------------------------|


                                                    3/4
                   Gtrs I, II, III
  a E. S +E  E +E  E E E   a E S S +S  S E E E E E   a E S S +S  S E Q
|------------------------|-------------------------|--------------------|
|-3s5--3-(3)-5-(5)-------|-----3p0-(0)-3p0-0-------|-----3p0-(0)-3p0-0--|
|--------------------1-2-|-2s4-----------------1-2-|-2s4----------------|
|------------------2-----|-------------------2-----|--------------------|
|------------------------|-------------------------|--------------------|
|------------------------|-------------------------|--------------------|
|
| Gtr IV
|   H           E  E E E   a E S S +S  S E E E E E   a E S S +S  S E Q
|------------------------|-------------------------|--------------------|
|------------------------|-------------------------|--------------------|
|------------------------|-------------------------|--------------------|
|------------------------|-------------------------|--------------------|
|------------------------|-----5-------5-----------|-----5-------5------|
|------------------0-4-5-|-5s7---7-(7)---7-7-0-4-5-|-5s7---7-(7)---7-7--|


 4/4
  Gtrs I, II
  H    H      H    H      S S S S S S S S  S  S S S S S E
|-----------|-----------|---------------------------------|
|-4----4----|-4----4----|-5p0-0-3p0-0-5p0--0--3p0-0-------|
|-4----4----|-4----4----|---------------------------2p1---|
|-4----4----|-4----4----|-------------------------------2-|
|-2----0----|-----------|---------------------------------|
|-----------|-3----2----|---------------------------------|
|
| H    H      H    H      Q       Q       +E    E   Q
|-----------|-----------|---------------------------------|
|-4---------|-----------|---------------------------------|
|-4----4----|-4----4----|---------------------------------|
|-4----4----|-4----4----|---------------------------------|
|-2----0----|------2----|---------------------------------|
|-----------|-3---------|-0-------0-------(0)---0---0-----|


  S S S S S S S S  S  S S S S S E
|---------------------------------|
|-5p0-0-3p0-0-5p0--0--3p0-0-------|
|---------------------------2p1---|
|-------------------------------2-|
|---------------------------------|
|---------------------------------|
|
| Q       Q       +E    E   Q
|---------------------------------|
|---------------------------------|
|---------------------------------|
|---------------------------------|
|---------------------------------|
|-0-------0-------(0)---0---0-----|


  E E a E S S +S  S E E E   E E a E S S +S  S E Q
|-------------------------|-------------------------||
|---------3p0-(0)-3p0-0---|---------3p0-(0)-3p0-0---||
|-1-2-2s4-----------------|-1-2-2s4-----------------||
|-----------------------2-|-------------------------||
|-------------------------|-------------------------||
|-------------------------|-------------------------||
|
| Q     Q     +E    E Q     Q     Q     +E    E Q
|-------------------------|-------------------------||
|-------------------------|-------------------------||
|-------------------------|-------------------------||
|-------------------------|-------------------------||
|-------------------------|-------------------------||
|-0-----0-----(0)---0-0---|-0-----0-----(0)---0-0---||


 Verse 2
           ~~~~~~                   ~~~~~~                   ~~~~~~
  E. S +E  E +E  E E E   a E. S +E  E +E  E E E   a E. S +E  E +E  E E E
|----------------------|------------------------|------------------------|
|-5--3-(3)-5-(5)-3-----|-3s5--3-(3)-5-(5)-3-----|-3s5--3-(3)-5-(5)-3-----|
|------------------2-1-|--------------------2-1-|--------------------2-1-|
|----------------------|------------------------|------------------------|
|----------------------|------------------------|------------------------|
|----------------------|------------------------|------------------------|
|
| Q     Q    +E  E Q       Q     Q    +E  E Q       Q     Q    +E  E Q
|----------------------|------------------------|------------------------|
|----------------------|------------------------|------------------------|
|----------------------|------------------------|------------------------|
|----------------------|------------------------|------------------------|
|----------------------|------------------------|------------------------|
|-0-----0----(0)-0-0---|---0-----0----(0)-0-0---|---0-----0----(0)-0-0---|


                                                      3/4
  a E. S +E  E +E  E E E   a E S S +S  S E  E  E E E   a E S S +S  S E Q
|------------------------|---------------------------|--------------------|
|-3s5--3-(3)-5-(5)-------|-----3p0-(0)-3p0--0--------|-----3p0-(0)-3p0-0--|
|--------------------1-2-|-2s4-------------------1-2-|-2s4----------------|
|------------------2-----|---------------------2-----|--------------------|
|------------------------|---------------------------|--------------------|
|------------------------|---------------------------|--------------------|
|
|   Q     Q    +E  E Q       Q      Q      +E  E Q       Q      H
|------------------------|---------------------------|--------------------|
|------------------------|---------------------------|--------------------|
|------------------------|---------------------------|--------------------|
|------------------------|---------------------------|--------------------|
|------------------------|---------------------------|--------------------|
|---0-----0----(0)-0-0---|---0------0------(0)-0-0---|---0------0---------|


 4/4
           ~~~~~~                   ~~~~~~                   ~~~~~~
  E. S +E  E +E  E E E   a E. S +E  E +E  E E E   a E. S +E  E +E  E E E
|----------------------|------------------------|------------------------|
|-5--3-(3)-5-(5)-3-----|-3s5--3-(3)-5-(5)-3-----|-3s5--3-(3)-5-(5)-3-----|
|------------------2-1-|--------------------2-1-|--------------------2-1-|
|----------------------|------------------------|------------------------|
|----------------------|------------------------|------------------------|
|----------------------|------------------------|------------------------|
|
| Q     Q    +E  E Q       Q     Q    +E  E Q       Q     Q    +E  E Q
|----------------------|------------------------|------------------------|
|----------------------|------------------------|------------------------|
|----------------------|------------------------|------------------------|
|----------------------|------------------------|------------------------|
|----------------------|------------------------|------------------------|
|-0-----0----(0)-0-0---|---0-----0----(0)-0-0---|---0-----0----(0)-0-0---|


                                                      3/4
  a E. S +E  E +E  E E E   a E S S +S  S E  E  E E E   a E S S +S  S E Q
|------------------------|---------------------------|--------------------|
|-3s5--3-(3)-5-(5)-------|-----3p0-(0)-3p0--0--------|-----3p0-(0)-3p0-0--|
|--------------------1-2-|-2s4-------------------1-2-|-2s4----------------|
|------------------2-----|---------------------2-----|--------------------|
|------------------------|---------------------------|--------------------|
|------------------------|---------------------------|--------------------|
|
|   Q     Q    +E  E Q       Q      Q      +E  E Q       Q      H
|------------------------|---------------------------|--------------------|
|------------------------|---------------------------|--------------------|
|------------------------|---------------------------|--------------------|
|------------------------|---------------------------|--------------------|
|------------------------|---------------------------|--------------------|
|---0-----0----(0)-0-0---|---0------0------(0)-0-0---|---0------0---------|


 4/4
  H    H      H    H      +E  E   Q     H
|-----------|-----------|-----------------------|
|-4----4----|-4----4----|-(4)-------------------|
|-4----4----|-4----4----|-(4)-------------------|
|-4----4----|-4----4----|-(4)-------------------|
|-2----0----|-----------|-----------------------|
|-----------|-3----2----|-(2)-------------------|
|
| H    H      H    H       E  S E   S E S E. Q
|-----------|-----------|-----------------------|
|-4---------|-----------|-----------------------|
|-4----4----|-4----4----|-----------------------|
|-4----4----|-4----4----|-----------------------|
|-2----0----|------2----|-----2-----2---2-------|
|-----------|-3---------|-----0-----0---0-------|


  Gtr III
  E S S S E. S E. Q    E S E S E S E. Q    E S S S E. +H
|--------------------|-------------------|-------------------||
|--------------------|-------------------|---------3--(3)----||
|--------------------|-------------------|---2-2-2-0--(0)----||
|--------------------|-------------------|---2-2-2-0--(0)----||
|---2-2-2-2--2-------|---2---2---2-------|---0-0-0-----------||
|---0-0-0-0--0-------|---0---0---0-------|---------3--(3)----||


 Verse 3
  +E  S E S E S E. Q    E S S S E.    S E. Q
|---------------------|-----------------------|
|-(3)-----------------|-----------------------|
|-(0)-----------------|-----------------------|
|-(0)-----------------|---2-2-2---------------|
|---------------------|---0-0-0---------------|
|-(3)-0---0---0-------|---------3b3.5-0-------|


  E S E S E S E. Q    E S S S E.    S E. Q
|-------------------|------------------------|
|-------------------|------------------------|
|-------------------|------------------------|
|-------------------|---2-2-2----------------|
|---2---2---2-------|---0-0-0----------------|
|---0---0---0-------|---------3b3.5-0--------|


  E S E S E S E. Q    E S S S E.    S E. Q
|-------------------|-----------------------|
|-------------------|-----------------------|
|-------------------|-----------------------|
|-------------------|---2-2-2---------------|
|-------------------|---0-0-0---------------|
|---0---0---0-------|---------3b3.5-0-------|


                    Gtrs I, II, III
  E S E S E S E. Q    H             E E E E
|-------------------|------------------------|
|-------------------|------------------------|
|-------------------|-------------------1-2--|
|-------------------|---2-2-2---------2------|
|---2---2---2-------|---0-0-0----------------|
|---0---0---0-------|---------3b3.5-0--------|
                      E S S S E.    H


                                                   G
  a E S S S S S S E E E E   a  E  S S S S S S H
|-------------------------|------------------------|
|-----3p0---3p0---0-------|-------3p0---3p0---0----|
|-2s4-----4-----4-----1-2-|-2s=4------4-----4------|
|-------------------2-----|------------------------|
|-------------------------|------------------------|
|---0-----0-------0-0-0---|---(0)------------------|
    Q     Q       E E Q       +W


 tr III
  S E S E S S H      E S S S E.    S E. Q
|------------------|-------------------------|
|------------------|-------------------------|
|------------------|-------------------------|
|------------------|---2-2-2-----------------|
|------------------|---0-0-0-----------------|
|-0---0---0--------|---------3b3.5-0---------|


  E S E S E S E. Q    E S S S E.    S E. Q
|-------------------|-----------------------|
|-------------------|-----------------------|
|-------------------|-----------------------|
|-------------------|---2-2-2---------------|
|-------------------|---0-0-0---------------|
|---0---0---0-------|---------3b3.5-0-------|


  E S E S E S E. Q    E S S S E.    S E. Q
|-------------------|------------------------|
|-------------------|------------------------|
|-------------------|------------------------|
|-------------------|---2-2-2----------------|
|-------------------|---0-0-0----------------|
|---0---0---0-------|---------3b3.5-0--------|


                                            $
  E S E S E S E. Q    E S S S E.    S E. Q
|-------------------|-----------------------||
|-------------------|-----------------------||
|-------------------|-----------------------||
|-------------------|---2-2-2---------------||
|-------------------|---0-0-0---------------||
|---0---0---0-------|---------3b3.5-0-------||


 Bridge
  E S S S S S S S E. Q    E S S S S S S E S S Q
|-----------------------|---------------------1---|
|-----------------------|---------------------1---|
|-----------------------|---------------------2---|
|---7p0---5p0---4-------|---7p0---5p0---4-----3---|
|-0-----0-----0---------|-0-----0-----0-----------|
|-----------------------|-----------------1-1-----|


  Gtrs I, II, V
  W                       H             E E   E   E
|-----------------------|-----------------------------|
|-----------------------|-----------------------------|
|-----------------------|---------------------1---2---|
|-----------------------|-----------------2-----------|
|-----------------------|-----------------------------|
|-----------------------|-----------------0---4---5---|
|                         H             E E   E   E
|
| Gtr III
| E S S S S S S S E. Q    E S S S S S S E S S S S S S
|-----------------------|-----------------------------|
|-----------------------|-----------------------------|
|-----------------------|-----------------------------|
|---7p0---5p0---4-------|---7p0---5p0---4-------------|
|-0-----0-----0---------|-0-----0-----0---------2-4h5-|
|-----------------------|-----------------0-4h5-------|


  a E S S +S  S E E E E E   a E S S +S  S E H
|-------------------------|----------------------|
|-----3p0-(0)-3p0-0-------|-----3p0-(0)-3p0-0----|
|-2s4-----------------1-2-|-2s4------------------|
|-------------------2-----|----------------------|
|-----5-------5-----------|-----5-------5--------|
|-5s7---7-(7)---7-7-0-4-5-|-5s7---7-(7)---7-7----|
| a E S S +S  S E E E E E   a E S S +S  S E H
|
|   E S E     S E H           W
|-------------------------|----------------------|
|-------------------------|----------------------|
|-------------------------|----------------------|
|---2---------------------|----------------------|
|-------------------------|----------------------|
|-----0-------0---0-------|----------------------|


                 To Coda
  Gtrs I, II
  H    H      H    H      +E  E   Q     H
|-----------|-----------|-----------------------|
|-4----4----|-4----4----|-(4)-------------------|
|-4----4----|-4----4----|-(4)-------------------|
|-4----4----|-4----4----|-(4)-------------------|
|-2----0----|-----------|-----------------------|
|-----------|-3----2----|-(2)-------------------|
|
| Gtr III
| H    H      H    H       E  S E   S E S E. Q
|-----------|-----------|-----------------------|
|-4---------|-----------|-----------------------|
|-4----4----|-4----4----|-----------------------|
|-4----4----|-4----4----|-----------------------|
|-2----0----|------2----|-----2-----2---2-------|
|-----------|-3---------|-----0-----0---0-------|


  Gtr III
  E S S S E. S E. Q    E S E S E S E. Q    E S S S E. +H
|--------------------|-------------------|-------------------||
|--------------------|-------------------|---------3--(3)----||
|--------------------|-------------------|---2-2-2-0--(0)----||
|--------------------|-------------------|---2-2-2-0--(0)----||
|---2-2-2-2--2-------|---2---2---2-------|---0-0-0-----------||
|---0-0-0-0--0-------|---0---0---0-------|---------3--(3)----||


 Verse 4
  +E  S E S E S E. Q    E S S S E.    S E. Q
|---------------------|-----------------------|
|-(3)-----------------|-----------------------|
|-(0)-----------------|-----------------------|
|-(0)-----------------|---2-2-2---------------|
|---------------------|---0-0-0---------------|
|-(3)-0---0---0-------|---------3b3.5-0-------|


  E S E S E S E. Q    E S S S E.    S E. Q
|-------------------|------------------------|
|-------------------|------------------------|
|-------------------|------------------------|
|-------------------|---2-2-2----------------|
|-------------------|---0-0-0----------------|
|---0---0---0-------|---------3b3.5-0--------|


  E S E S E S E. Q    E S S S E.    S E. Q
|-------------------|-----------------------|
|-------------------|-----------------------|
|-------------------|-----------------------|
|-------------------|---2-2-2---------------|
|-------------------|---0-0-0---------------|
|---0---0---0-------|---------3b3.5-0-------|


  E S E S E S E. Q    E S S S E.    S E. Q
|-------------------|------------------------|
|-------------------|------------------------|
|-------------------|------------------------|
|-------------------|---2-2-2----------------|
|-------------------|---0-0-0----------------|
|---0---0---0-------|---------3b3.5-0--------|


 Bridge
  E S S S S S S S E. Q    E S S S S S S E S S Q    E S S S S S S S E. Q
|-----------------------|---------------------1--|-----------------------|
|-----------------------|---------------------1--|-----------------------|
|-----------------------|---------------------2--|-----------------------|
|---7p0---5p0---4-------|---7p0---5p0---4-----3--|---7p0---5p0---4-------|
|-0-----0-----0---------|-0-----0-----0----------|-0-----0-----0---------|
|-----------------------|-----------------1-1----|-----------------------|


  Gtrs I, II, IV
  H             E E   E   E
|-----------------------------|
|-----------------------------|
|---------------------1---2---|
|-----------------2-----------|
|-----------------------------|
|-----------------0---4---5---|
| H             E E   E   E
|
| Gtr III
| E S S S S S S E S S S S S S
|-----------------------------|
|-----------------------------|
|-----------------------------|
|---7p0---5p0---4-------------|
|-0-----0-----0---------2-4h5-|
|-----------------0-4h5-------|


  a E S S +S  S E E E E E   a E S S +S  S E  H
|-------------------------|--------------------------|
|-----3p0-(0)-3p0-0-------|-----3p0-(0)-3p0--0-------|
|-2s4-----------------1-2-|-2s4----------------------|
|-------------------2-----|--------------------------|
|-----5-------5-----------|-----5-------5------------|
|-5s7---7-(7)---7-7-0-4-5-|-5s7---7-(7)---7--7-------|
| a E S S +S  S E E E E E   a E S S +S  S E  H
|
|   E S E     S E H           Q      Q      +E  E Q
|-------------------------|--------------------------|
|-------------------------|--------------------------|
|-------------------------|--------------------------|
|---2---------------------|--------------------------|
|-------------------------|--------------------------|
|-----0-------0---0-------|---0------0------(0)-0-0--|


  H    H      H    H      +E  E   Q     H
|-----------|-----------|-----------------------|
|-4----4----|-4----4----|-(4)-------------------|
|-4----4----|-4----4----|-(4)-------------------|
|-4----4----|-4----4----|-(4)-------------------|
|-2----0----|-----------|-----------------------|
|-----------|-3----2----|-(2)-------------------|
|
| H    H      H    H       E  S E   S E S E. Q
|-----------|-----------|-----------------------|
|-4---------|-----------|-----------------------|
|-4----4----|-4----4----|-----------------------|
|-4----4----|-4----4----|-----------------------|
|-2----0----|------2----|-----2-----2---2-------|
|-----------|-3---------|-----0-----0---0-------|


  Gtr III
  E S S S E. S E. Q    E S E S E S E. Q    E S S S E. +H
|--------------------|-------------------|-------------------|
|--------------------|-------------------|---------3--(3)----|
|--------------------|-------------------|---2-2-2-0--(0)----|
|--------------------|-------------------|---2-2-2-0--(0)----|
|---2-2-2-2--2-------|---2---2---2-------|---0-0-0-----------|
|---0-0-0-0--0-------|---0---0---0-------|---------3--(3)----|


  +E  S S S E. +H       +E  S S S E. +H       +E  S S S E. +H
|---------------------|---------------------|---------------------||
|-(3)-------3--(3)----|-(3)-------3--(3)----|-(3)-------3--(3)----||
|-(0)-2-2-2-0--(0)----|-(0)-2-2-2-0--(0)----|-(0)-2-2-2-0--(0)----||
|-(0)-2-2-2-0--(0)----|-(0)-2-2-2-0--(0)----|-(0)-2-2-2-0--(0)----||
|-----0-0-0-----------|-----0-0-0-----------|-----0-0-0-----------||
|-(3)-------3--(3)----|-(3)-------3--(3)----|-(3)-------3--(3)----||


   Harmonica Solo
    +E  S E S E S E. Q    E S S S E. S E. Q
||----------------------|--------------------|
||o-(3)-----------------|--------------------|
||--(0)-----------------|--------------------|
||--(0)-----------------|--------------------|
||o-----2---2---2-------|---2-2-2-2--2-------|
||--(3)-0---0---0-------|---0-0-0-0--0-------|


  E S E S E S E. Q    E S S S E. +H
|-------------------|-------------------|
|-------------------|---------0--(0)----|
|-------------------|---2-2-2-0--(0)----|
|-------------------|---2-2-2-0--(0)----|
|---2---2---2-------|---0-0-0-----------|
|---0---0---0-------|---------3--(3)----|


  +E  S S S E. +H       +E  S S S E. +H       +E  S S S E. +H
|---------------------|---------------------|----------------------||
|-(0)-------3--(3)----|-(3)-------3--(3)----|-(3)-------3--(3)----o||
|-(0)-2-2-2-0--(0)----|-(0)-2-2-2-0--(0)----|-(0)-2-2-2-0--(0)-----||
|-(0)-2-2-2-0--(0)----|-(0)-2-2-2-0--(0)----|-(0)-2-2-2-0--(0)-----||
|-----0-0-0-----------|-----0-0-0-----------|-----0-0-0-----------o||
|-(3)-------3--(3)----|-(3)-------3--(3)----|-(3)-------3--(3)-----||


  Gtrs I, II, V
   W                    W
|---------------------|--------------------|
|---------------------|--------------------|
|---------------------|--------------------|
|---------------------|--------------------|
|---------------------|--------------------|
|---------------------|--------------------|
|
| Gtr III
| +E  S E S E S E. Q    E S S S E. S E. Q
|---------------------|--------------------|
|-(3)-----------------|--------------------|
|-(0)-----------------|--------------------|
|-(0)-----------------|--------------------|
|-----2---2---2-------|---2-2-2-2--2-------|
|-(3)-0---0---0-------|---0-0-0-0--0-------|


                           3/4
  a E S S +S  S E E E E E   a  E  S S +S  S E Q
|-------------------------|-----------------------|
|-----3p0-(0)-3p0-0-------|-------3p0-(0)-3p0-0---|
|-2s4-----------------1-2-|-2s=4------------------|
|-------------------2-----|-----------------------|
|-----5-------5-----------|-------5-------5-------|
|-5s7---7-(7)---7-7-0-4-5-|-5s=7----7-(7)---7-7---|
| a E S S +S  S E E E E E   a  E  S S +S  S E Q
|
|   E S E     S E H           +E  S S  S  E.  E E
|-------------------------|-----------------------|
|-------------------------|-----------------------|
|-------------------------|-----------------------|
|-------------------------|-----------------------|
|-----2-------2---2-------|---(2)-2-2--2--2---2---|
|-----0-------0---0-------|---(0)-0-0--0--0---0---|


 4/4
  Gtrs I, II
  S S S S S S S S S S S S S E.
|------------------------------|
|-5p0-0-3p0-0-5p0-0-3p0-0------|
|-------------------------2p1--|
|------------------------------|
|------------------------------|
|------------------------------|


  S S S S S S S S S S S S S S E   E E a E S S +S  S E E E
|-------------------------------|----------------------------|
|-5p0-0-3p0-0-5p0-0-3p0-0-------|---------3p0-(0)-3p0-0------|
|-------------------------2p1---|-1-2-2s4--------------------|
|-----------------------------2p|=0---------------------2p===|
|-------------------------------|----------------------------|
|-------------------------------|----------------------------|


                         Gtrs I, II, III
  E E a E S S +S  S E Q    S S S S S S S S  S  S S S S E.
|------------------------|--------------------------------|
|---------3p0-(0)-3p0-0--|-5p0-0-3p0-0-5p0--0--3p0-0------|
|-1-2-2s4----------------|---------------------------2p1--|
|-0----------------------|--------------------------------|
|------------------------|--------------------------------|
|------------------------|-0-------0-------(0)------------|
                           Q       Q       +H


                              Gtrs I, II, IV
   S  S S S S S S S  S  S S S S S E
|-----------------------------------|
|--5p=0-0-3p0-0-5p0--0--3p0-0-------|
|-----------------------------2p1---|
|---------------------------------2-|
|-----------------------------------|
|-(0)---0---0-------(0)-------------|
  +E    E   Q       +H


  Gtrs I, II, IV                                   Gt
  E E a E S S +S  S E E E   E E a E S S +S  S E Q
|-------------------------|------------------------||
|---------3p0-(0)-3p0-0---|---------3p0-(0)-3p0-0--||
|-1-2-2s4-----------------|-1-2-2s4----------------||
|-----------------------2-|------------------------||
|-------------------------|------------------------||
|-------------------------|------------------------||
|
| Gtr III
| Q     Q     +E    E Q     Q     Q     +E    E Q
|-------------------------|------------------------||
|-------------------------|------------------------||
|-------------------------|------------------------||
|-------------------------|------------------------||
|-------------------------|------------------------||
|-0-----0-----(0)---0-0---|-0-----0-----(0)---0-0--||


 Verse 5
 rs I, II
           ~~~~~~                   ~~~~~~
  E. S +E  E +E  E E E   a E. S +E  E +E  E E E
|----------------------|------------------------|
|-5--3-(3)-5-(5)-3-----|-3s5--3-(3)-5-(5)-3-----|
|------------------2-1-|--------------------2-1-|
|----------------------|------------------------|
|----------------------|------------------------|
|----------------------|------------------------|
|
| Q     Q    +E  E Q       Q     Q    +E  E Q
|----------------------|------------------------|
|----------------------|------------------------|
|----------------------|------------------------|
|----------------------|------------------------|
|----------------------|------------------------|
|-0-----0----(0)-0-0---|---0-----0----(0)-0-0---|


             ~~~~~~                   ~~~~~~
  a E. S +E  E +E  E E E   a E. S +E  E +E  E E E
|------------------------|------------------------|
|-3s5--3-(3)-5-(5)-3-----|-3s5--3-(3)-5-(5)-3-----|
|--------------------2-1-|--------------------2-1-|
|------------------------|------------------------|
|------------------------|------------------------|
|------------------------|------------------------|
|
|   Q     Q    +E  E Q       Q     Q    +E  E Q
|------------------------|------------------------|
|------------------------|------------------------|
|------------------------|------------------------|
|------------------------|------------------------|
|------------------------|------------------------|
|---0-----0----(0)-0-0---|---0-----0----(0)-0-0---|
|
|   Gtr IV
|   W                        H           E  E E E
|------------------------|------------------------|
|------------------------|------------------------|
|------------------------|------------------------|
|------------------------|------------------------|
|------------------------|------------------------|
|------------------------|------------------0-4-5-|


                             3/4
  a E S S +S  S E  E  E E E   a E S S +S  S E Q
|---------------------------|--------------------|
|-----3p0-(0)-3p0--0--------|-----3p0-(0)-3p0-0--|
|-2s4-------------------1-2-|-2s4----------------|
|---------------------2-----|--------------------|
|---------------------------|--------------------|
|---------------------------|--------------------|
|
|   Q      Q      +E  E Q       Q      H
|---------------------------|--------------------|
|---------------------------|--------------------|
|---------------------------|--------------------|
|---------------------------|--------------------|
|---------------------------|--------------------|
|---0------0------(0)-0-0---|---0------0---------|
|
| a E S S +S  S E  E  E E E   a E S S +S  S E Q
|---------------------------|--------------------|
|---------------------------|--------------------|
|---------------------------|--------------------|
|---------------------------|--------------------|
|-----5-------5-------------|-----5-------5------|
|-5s7---7-(7)---7--7--0-4-5-|-5s7---7-(7)---7-7--|


 4/4
  Gtrs I, II
           ~~~~~~                   ~~~~~~                 ~~~~~~
  E. S +E  E +E  E E E   a E. S +E  E +E  E E E   E. S +E  E +E  E E E
|----------------------|------------------------|----------------------|
|-5--3-(3)-5-(5)-3-----|-3s5--3-(3)-5-(5)-3-----|-5--3-(3)-5-(5)-3-----|
|------------------2-1-|--------------------2-1-|------------------2-1-|
|----------------------|------------------------|----------------------|
|----------------------|------------------------|----------------------|
|----------------------|------------------------|----------------------|
|
| Gtr III
| Q     Q    +E  E Q       Q     Q    +E  E Q     Q     Q    +E  E Q
|----------------------|------------------------|----------------------|
|----------------------|------------------------|----------------------|
|----------------------|------------------------|----------------------|
|----------------------|------------------------|----------------------|
|----------------------|------------------------|----------------------|
|-0-----0----(0)-0-0---|---0-----0----(0)-0-0---|-0-----0----(0)-0-0---|


  a E. S +E  E +E  E E E   a E S S +S  S E  E     E E E
|------------------------|------------------------------|
|-3s5--3-(3)-5-(5)-------|-----3p0-(0)-3p0--0-----------|
|--------------------1-2-|-2s4----------------------1-2-|
|------------------2-----|------------------------2-----|
|------------------------|------------------------------|
|------------------------|------------------------------|
|
|   Q     Q    +E  E Q       Q      Q      +E     E Q
|------------------------|------------------------------|
|------------------------|------------------------------|
|------------------------|------------------------------|
|------------------------|------------------------------|
|------------------------|------------------------------|
|---0-----0----(0)-0-0---|---0------0------(0)----0-0---|
|
| Gtr IV
|   E. S +E  E +E  E Q       E S E     S E  S  E.   Q
|------------------------|------------------------------|
|------------------------|------------------------------|
|------------------------|------------------------------|
|------------------------|------------------------------|
|---2--2-(2)-2-(2)-------|-----2-------2----2-----------|
|---0--0-(0)-0-(0)-------|-----0-------0----0-----------|


                 D.S. al Coda
  a E S S +S  S E  H
|------------------------------||
|-----3p0-(0)-3p0--0-----------||
|-2s4--------------------------||
|------------------------------||
|------------------------------||
|------------------------------||
|
|   Q      Q      +E     E Q
|------------------------------||
|------------------------------||
|------------------------------||
|------------------------------||
|------------------------------||
|---0------0------(0)----0-0---||
|
|   E S S  S  E.   S  E.   Q
|------------------------------||
|------------------------------||
|------------------------------||
|------------------------------||
|-----2-2--2--2----2-----------||
|-----0-0--0--0----0-----------||


  &
  Gtrs I, II, III, IV
                          |-3-| |-3-|   |-3-| |-3-|
  H    H      H    H      Q Q Q Q Q Q   Q Q Q Q Q Q
|-----------|-----------|-------------|--------------|
|-4----4----|-4----4----|-4-4-4-4-4-4-|-4-4-4-4-4-4--|
|-4----4----|-4----4----|-4-4-4-4-4-4-|-4-4-4-4-4-4--|
|-4----4----|-4----4----|-4-4-4-4-4-4-|-4-4-4-4-4-4--|
|-2----0----|-----------|-2-2-2-0-0-0-|--------------|
|-----------|-3----2----|-------------|-3-3-3-2-2-2--|


  |-3-| |-3-|   |-3-| |-3-|
  Q Q Q Q Q Q   Q Q Q Q Q Q   E S E S E S E. Q    E S S S E. S E. Q
|-------------|-------------|-------------------|---------------------*|
|-4-4-4-4-4-4-|-4-4-4-4-4-4-|-------------------|---------------------*|
|-4-4-4-4-4-4-|-4-4-4-4-4-4-|-------------------|---------------------*|
|-4-4-4-4-4-4-|-4-4-4-4-4-4-|-------------------|---------------------*|
|-2-2-2-0-0-0-|-------------|---2---2---2-------|---2-2-2-2--2--------*|
|-------------|-3-3-3-2-2-2-|---0---0---0-------|---0-0-0-0--0--------*|
comments
We did not receive enough feedback on this tab! Please rate:
print report bad tab
1 2 3 4 5
1 comment total.
0 reply
demonmouse500 wrote on December 13 2007, 07:05 pm

Very accurate, very thorough. Well done.

I want to post or [tab]
guest
You may want to rate the tab now too:
select rating
Please do not post tabs as comments. Select "correction" instead!