Oops, an error
Loading. Please wait.

Buko Chords

ver4
ver4
More versions @911Tabs.com
32,147 views 204 this week
no commentswrite comment
1 2 3 4 5
excellent!
x 4
add to favorites launch autoscroll
font size
0
reset
transpose
0
reset
highlight chords
display chords
Autoscroll
+/-
esc
set tempo
stop
Contributor
WARNING: You are trying to view
                                    content from Ultimate-Guitar.com
                                    in an unauthorized application,
                                    which is prohibited.

                                    Please use an official Ultimate
                                    Guitar Tabs application for iPhone,
                                    iPad or Android to access legitimate
                                    chords, guitar, bass, and drum tabs
                                    from Ultimate-Guitar.com database.

                                    Type "ultimate guitar tabs" in Apple
                                    App Store's or Android Market's
                                    search to find the application.
Buko by Jireh Lim

Capo on 2nd Fret :)

e|-12--10--9-------------9--9--12--10--9------------------------|
B|------------10--12-----------------------10--12--12/14--12--10|
G|--------------------------------------------------------------|
D|--------------------------------------------------------------|
A|--------------------------------------------------------------|
E|--------------------------------------------------------------|

e|--9--9--12--10--9---------------------------------------------|
B|-----------------------------10--12---------------------------|
G|--------------------------------------------------------------|
D|--------------------------------------------------------------|
A|--------------------------------------------------------------|
E|--------------------------------------------------------------|

e|--9--9--12--10--9---------------------------------------------|
B|-----------------------------10--12/14---12--10---------------|
G|--------------------------------------------------------------|
D|--------------------------------------------------------------|
A|--------------------------------------------------------------|
E|--------------------------------------------------------------|

Verse:
   G       Bm7
Naalala ko pa 
       Am           D
Nung nililigawan pa lamang kita
     G           Bm7
Dadalaw tuwing gabi 
    Am                D
Masilayan lamang ang 'yong mga ngiti
    G        Bm7
At Ika'y sasabihan
  Am                    D
Bukas ng alas siyete sa dating tagpuan
  G            Bm7
Buo ang araw ko
    Am                  D
Marinig ko lang ang mga himig mo

   Am                  Bm7
Hindi ko man alam kung nasan ka
  Am                Bm7
Wala man tayong komunikasyon
    Am               Bm7
Mag hihintay sa'yo buong magdamag
  C9                 Cm7 
Dahil ikaw ang buhay ko
 
Chorus:
      G       Bm7
Kung inaakala mo
        Am           D
Ang pag-ibig ko'y magbabago
   G          Bm7
Itaga mo sa bato
    Am           D
Dumaan man ang maraming pasko
      Am           Bm7
Kahit na di mo na abot ang sahig
      Am           Bm7
Kahit na di mo na 'ko marinig
 C9        Cm7
Ikaw pa rin ang buhay ko

Verse 2:
   G       Bm7
Naalala ko pa
       Am              D
Nung pinapangarap pa lamang kita
    G           Bm7
Hahatid, susunduin 
  Am              D                  D
Kahit mga bituin aking susungkitin

Chorus:
      G       Bm7
Kung inaakala mo
        Am           D
Ang pag-ibig ko'y magbabago
   G          Bm7
Itaga mo sa bato
    Am           D
Dumaan man ang maraming pasko
      Am           Bm7
Kahit na di mo na abot ang sahig
      Am           Bm7
Kahit na di mo na 'ko marinig
 C9         D
Ikaw pa rin 

Bridge:
 C9         D        Em7
Araw-araw kitang liligawan
    D            C9
Haharanahin ka lagi
  D        Em7
Kitang liligawan
    D            C9
Haharanahin ka lagi

      G       Bm7
Kung inaakala mo 
        Am           D
Ang pag-ibig ko'y magbabago
   G          Bm7
Itaga mo sa bato
    Am               D
Pumuti man ang buhok ko

Chorus:
      G       Bm7
Kung inaakala mo
        Am           D
Ang pag-ibig ko'y magbabago
   G          Bm7
Itaga mo sa bato
    Am           D
Dumaan man ang maraming pasko

      G       Bm7
Kung inaakala mo
        Am           D
Ang pag-ibig ko'y magbabago
   G          Bm7
Itaga mo sa bato
    Am           D
Dumaan man ang maraming pasko

      Am                    Bm7
Kahit na kulukulubot ang balat
      Am               Bm7
Kahit na hirap ng dumilat
      Am                     Bm7
Kahit na di mo na abot ang sahig
      Am           Bm7
Kahit na di mo na 'ko marinig
 Am          C9          Cm7
Ikaw parin, Ikaw parin
Ang buhay ko... 


Follow me on Twitter. @InstaaGAB
comments
print report bad tab
I want to post or [tab]
guest
You may want to rate the tab now too:
select rating
Please do not post tabs as comments. Select "correction" instead!