Oops, an error
Loading. Please wait.

Baden Jazz Suite Homage Baden Powell - I - Simplicitas Tab

1,279 views 8 this week
no commentswrite comment
1 2 3 4 5
please rate
Autoscroll
+/-
esc
set tempo
stop
Contributor
Hey! There's an official Ultimate Guitar app which is ideal
for learning songs when you're away from computer. Get the app
WARNING: You are trying to view
                                    content from Ultimate-Guitar.com
                                    in an unauthorized application,
                                    which is prohibited.

                                    Please use an official Ultimate
                                    Guitar Tabs application for iPhone,
                                    iPad or Android to access legitimate
                                    chords, guitar, bass, and drum tabs
                                    from Ultimate-Guitar.com database.

                                    Type "ultimate guitar tabs" in Apple
                                    App Store's or Android Market's
                                    search to find the application.
Baden Jazz Suite (Hommage a Baden Powell)
I. Simplicitas
by Jiri Jirmal
Time signature = 4:4
Tab by Francisco Galera (January 2008)
There is a video on youtube of this piece played by Li Jie.


Andante cantabile con espressione
   | . | . | . | .   | . | . | . | .    | . | . | .  | .   | . | . | .  | .
E|-0-------3-------|-7-------9-------|-10-------7-9-10-7-|----------------7-|
B|---0-------0-----|---0-------0-----|--------7----------|-8-------8---10---|
G|-----0-------0---|-----0-------0---|------7------------|-------7---9------|
D|-----------------|-----------------|-------------------|-----9------------|
A|-----------------|---------------0-|-------------------|------------------|
E|-------0-------0-|-------0---------|----7--------------|---0--------------|
           1        -1       3          4 1 1 1 1 3  4 1   2   3 1 2    4 1

   | . | .  | . | .   | . | . | . | .    | . | . | . | .    | . | . | . | .
E|-9----------7-9-5-|-2-------2---3-5--|-7-------3-5-7----|-2-----2----------|
B|-------8-10-------|-------2---0------|-------0-------8--|-----2---5-----2--|
G|-----9------------|-----2------------|-----0------------|-------------3----|
D|------------------|---0--------------|------------------|------------------|
A|---0--------------|------------------|------------------|------------------|
E|------------------|------------------|---3--------------|---2-------2------|
   3   2 1  4 1 4 4   3   1 2     1 2    4 1     1 2 4 4    3 1 2 3   1 3 2

                                                               3
   | . | . | . | .    | . | . | . |   .      | . | . | .  |        .
E|---------2--------|---------------6-7-9-|-10-------7-9-10-10-9-8-7-|
B|-3-----3---5-3-5--|-2---------7-9-------|--------7-----------------|
G|-----0------------|-------4-3-----------|------7-------------------|
D|------------------|-----2---2-----------|--------------------------|
A|------------------|---------4-----------|--------------------------|
E|---0--------------|---3-----2-----------|----7---------------------|
         2 4 2 1 4    1 2   4   2 4 1 1 3    4 1 1 1 1    4         1

   | . | . | . | .    | . | .  | . | .   | . | . | . | .    | . | . | . | .
E|-3-------3---5-7--|-9----------7-9-5-|-2-------2---3-5--|-7-------3-5-7----|
B|-------3---5------|-------8-10-------|-------2----------|-------0-------0--|
G|-----4------------|-----9------------|-----2-----4------|-----0------------|
D|------------------|------------------|---0--------------|------------------|
A|------------------|---0--------------|------------------|------------------|
E|---0--------------|------------------|------------------|---3--------------|
   2

   | . | . | . | .    | . | . | . | .    | . | . | . | .    | . | . | . | .
E|-2-----2----------|------------------|------------------|-5-----3-3-2-2-0--|
B|-----2---5-----2--|-3-----3-------3--|-2-----------2-3--|-----0---0--------|
G|-------------3----|-----0---2---3----|-------3-4--------|-----0---0--------|
D|------------------|------------------|-----2------------|---------0--------|
A|------------------|------------------|---2-------2------|------------------|
E|---2-------2------|---0-------2------|------------------|---0--------------|

   | . | . | . | .   | . | . | . | .    | . | . | .   |   .
E|-0---------------|------------------|-------------------2-5-|
B|-------3-3-2-2-0-|-0-------------2--|-0---------0-2-3-5-----|
G|-----2---1-------|-------2-2---2----|-------2-2-------------|
D|-----------------|-----5------------|-----4-----------------|
A|-----------------|-----------0------|---5-------------------|
E|---2-----1-------|---0--------------|-----------------------|

    | . | . |  .  |  .   | . | . | . | .    | . | . | . | .
E|-10-----8-8----------|-------3-3--------|---------0-----0--|
B|------8---8-11-11-10-|10---3---3-6-6-3--|-2-----2----------|
G|------8---8----------|-----3---3--------|-------------1----|
D|---------------------|---3-----3--------|-----2------------|
A|----------8----------|------------------|-----------1------|
E|----8----------------|------------------|---0--------------|

   | . | . |   .   |   .      | . | .  |  .  | .   | . | . | . | .
E|-5-------------2-3-5-7-9-|-10-------14-12-10---|---------------7-|
B|-------0-2-3-5-----------|--------7---------12-|-8-------8--10---|
G|-----2-------------------|------7--------------|-------7---9-----|
D|-------------------------|---------------------|-----9-----------|
A|---0---------------------|---------------------|-----------------|
E|-------------------------|----7----------------|---0-------------|

   | . | .  | . | .   | . | . | . | .   | . | . | . | .    | . | . | . | .
E|-9-------12-9-5-3-|-2-------2---3-5-|-7------10-7-5-3--|-2-----2----------|
B|-------8----------|-------2---0-----|-------0----------|-----2---5-----2--|
G|-----9------------|-----2-----------|-----0------------|-------------3----|
D|------------------|---0-------------|------------------|------------------|
A|---0--------------|-----------------|------------------|------------------|
E|------------------|-----------------|---3--------------|---2-------2------|

   | . | . | . | .    | . | . | . | .    | . | . | . | .    | . | . | . | .
E|------------------|------------------|-5-----3-3-7-2-0--|-0---------5------|
B|-3-----3-2-----3--|-2-----------2-3--|-----0---0--------|-------3-3---2-0--|
G|-----0-------3----|-------3-4--------|-----0---0--------|-----2---1--------|
D|------------------|-----2------------|------------------|------------------|
A|------------------|---2-------2------|---------0--------|------------------|
E|---0-------2------|------------------|---0--------------|---2-----1--------|

   | . | . | . | .    | . | . | .   |   .      | . | . |  .  |  . 
E|------------------|-------------------2-5--|10-----8-8---------|
B|-0-------------2--|-0---------0-2-3-5------|-----8---8-11-11-10|
G|-----0-2-2---2----|-------2-2--------------|-----8---8---------|
D|------------------|-----4------------------|-------------------|
A|-----------0------|---5--------------------|---------8---------|
E|---0--------------|------------------------|---8---------------|

   | . | . | . | .    | . | . | . | .   | . | . |   .   |   .
E|-------3-3--------|---------0-----0--|5-------------2-3-5-7-9-|
B|10---3---3-6-6-3--|-2-----2----------|------0-2-3-5-----------|
G|-----3---3--------|-------------1----|----2-------------------|
D|---3-----3--------|-----2------------|------------------------|
A|------------------|-----------1------|--0---------------------|
E|------------------|---0--------------|------------------------|

    | . | .  |  .  | .  | . | . | . | .    | . | . |  . | .   | . | . | . | .
E|-10-------14-12-10--|---------3---5-7--|-9-------12-9-----|-2-------2---3-5--|
B|--------7---------12|-8-----3---5------|-------8-----10-8-|-------2---0------|
G|------7-------------|-----4------------|-----9------------|-----2------------|
D|--------------------|------------------|------------------|---0--------------|
A|--------------------|------------------|---0--------------|------------------|
E|----7---------------|---0--------------|------------------|------------------|

   | . | .  | . | .   | . | . | . | .    | . | . | . | .    |  . | . | . |  .
E|-7-------10-7-5-3-|-2-----2----------|------------------|------------------||
B|-------0----------|-----2---5-----2--|-3-----3-2-----3--|------------------||
G|-----0------------|-------------3----|-----0-------3----|-4--------4=====--||
D|------------------|------------------|-------------2----|--------4=======--||
A|------------------|------------------|------------------|------5=========--||
E|---3--------------|---2-------2------|---0-------2------|----7===========--||

Tempo de Bossa Nova

   | . | . | . | .   | . | . | . | .   | . | . | . | .  | . | . | . | .
E|-----------------|-------------2---|-----5======-3--|-----------------|
B|---2-----2-----3=|==---2---3---3---|-----0======-0--|-0-----2-3---5---|
G|---2-----2-----2=|==---2---2---2---|-----0======-0--|-0-----0-0---0---|
D|---2-----2-----2=|==---2---2-------|----------------|-0-----0-0---0---|
A|-2-----------2---|---------2-------|----------------|-----------------|
E|-------2---------|---2-------------|-0============--|-0============---|


   | . | . | . | .   | . | . | . | .   | . | . | . | .   | . | . | . | .
E|-----------------|---0---2---3-----|-7-7---5-5---3-3=|==-2-2---0-------|
B|-3-2---0---2---3=|==-0---0---0-----|-5-5---5-5---1-1=|==-1-1---1---3---|
G|-0-0---0---0---0=|==-0---0---0-----|-5-5---5-5---2-2=|==-2-2---0---2---|
D|-0-0---0---0---0=|==---------------|-0=========------|---------0======-|
A|-0==========---0=|=0=============--|-------------0===|=0======---------|
E|-----------------|-----------------|-----------------|-----------------|


   | . | . | . | .   | . | . | . | .   | . | . | . | .  | . | . | . | .
E|---2-----2---0---|---5-----5---3---|----------------|---3-----3---2---|
B|---0-----0---0---|---0-----0---0---|---3-----3---2--|---2-----2---2---|
G|---0-----0---0---|---0-----0---0---|---3-----3---3--|---3-----3---3---|
D|-----------------|-----------------|---2-----2---2--|-----------------|
A|-----------------|-----------------|-3-----3-3------|-----------------|
E|-3-----3-3-------|-0-----0-0-------|----------------|-2-----2-2-------|

                                                           3        3
   | . | . | . | .   | . | . |  . | .  | . | . | . | .  ......   ......
E|-------------3-3=|==-7-7--10-10----|-----------2----|-5--7--9--9=====-|
B|-------3-3---3-3=|==-6-6--10-10----|-------2-2-2----|-5--7--8--8=====-|
G|-4-4---4-4---4-4=|==-7-7--10-10----|-3-3---3-3-3----|-6--7--9--9=====-|
D|-3-3---3-3---3-3=|==-5-5---9--9----|-2-2---2-2-2----|-4--7--7--7------|
A|-5-5---5-5-------|-----------------|-3-3---3-3------|-------------9---|
E|-3-3-------------|-----------------|-2-2------------|---------------8-|


   | . | . | . | .   | . | . | . | .   | . | . | . | .  | . | . | . | .
E|---9-----7-------|-----9---7-------|---5-----3------|-----5---3-------|
B|---7-----7-----7=|==---7---7---7---|---0-----0----0=|==---0---0---0---|
G|---7-----7-----7=|==---7---7---7---|---0-----0----0=|==---0---0---0---|
D|---------------7=|==-----------7---|--------------0=|==-----------0---|
A|-----------------|-----------------|----------------|-----------------|
E|-7-----7-----7---|---7-7-----------|-0-----0-----0--|---0-0====-------|


   | . | . | . | .   | . | . | . | .   | . | . | . | .   | . | . | . | .
E|-0-2---3---5---7-|==-9--10--12-----|----12----10-----|-8-----7-----5---|
B|-0-2---0---2---0-|==-0---0---0-----|----10----12-----|10-----7-----5---|
G|-0-2---0---2---0-|==-0---0---0-----|--11----11-----9-|-----7-----5-----|
D|-----------------|-----------------|-0-----------0---|---------0-------|
A|-----------------|-----------------|-------0---------|---0-------------|
E|-3-2---0---2---3-|==-5---7---9-----|-----------------|-----------------|


   | . | . | . | .   | . | . | . | .   | . | . | . | .   | . | . | . | .
E|-2-2---2-2-0---5=|==-5---5-5-3-----|---------------3=|==-3-3---3-3-2---|
B|-0-0---0-0-0---0=|==-0---0-0-0---3=|==-3---3-3-2---2=|==-2-2---2-2-2---|
G|-0-0---0-0-0---0=|==-0---0-0-0---3=|==-3---3-3-3---2=|==-2-2---2-2-2---|
D|-----------------|---------------2=|==-2---2-2-2-----|-----------------|
A|-----------------|---------------3=|==-3---3-3-3-----|-----------------|
E|-3-3---3-3-3---0=|==-0---0-0-0-----|---------------2=|==-2-2---2-2-2---|


   | . | . | . | .   | . | . | . | .   | . | . | . | .   | . | . | . | .
E|---------------3-|---------------2-|-----------------|-----0-------2---|
B|---------3-3---3-|---------2-2---2-|-----2-------3---|-----0-------2---|
G|---4-4---4-4---4-|---3-3---3-3---3-|-----2-------4---|---0---0---2---2-|
D|---3-3---3-3-3==-|---2-2---2-2-2---|---2---2---4---4-|-----------------|
A|---5-5-5====-----|---4-4-4---------|-5-------0-------|-----------------|
E|-3====-----------|-2---------------|-----------------|-3-------2-------|


   | . | . | . | .   | . | . | . | .   | . | . | . | .   | . | . | . | .
E|-----5-----3---3-|-----2-----0---0-|-----0-----------|-----------------|
B|-----0-----0---0-|-----2-----2---2-|-----2-----3---3-|-----2-----0---0-|
G|---0-----0-----0-|---0-----0-----0-|---2-------2---2-|-----1-----1---1-|
D|-----------------|-----------------|---------0-----0-|---0-----0-----0-|
A|-----------------|-0-----0-----0---|-----------------|-----------------|
E|-0-----0-----0---|-----------------|-2-----2-----2---|-1-----1-----0---|


   | . | . | . | .   | . | . | . | .   | .  | . |  . | .   | . | . | . | .
E|-----------------|-2-----5-----9---|--11-12---9-10---8-|-9---6-7---4-5---|
B|-----0-----3-----|-0-----0----10---|---9-10--11-12---8-|10---7-8---6-7---|
G|-----0-----0---0-|-----0-----0-----|--10-11--10-11---8-|-9---6-7---5-6---|
D|---0-----0-------|-----------------|-0------0------0---|---0-----0-------|
A|-------------0---|---0-----0-------|-------------------|-----------------|
E|-0-----0---------|-----------------|-------------------|-----------------|
   p                         f         mp                              f

   | . | . | . | .   | . | . | . | .   | . | . | . | .   | . | . | . | .
E|-3---2---3-------|-----------------|-5---4---5-------|-----------------|
B|-4---3---4---5-3=|==-4---1-0---1---|-6---5---6---6-5=|==-7---3-2---3---|
G|-3---2---3---4-3=|==-3---2-1---2---|-5---4---5---5-4=|==-6---2-1---2---|
D|-------------5-3=|==-5---1-0---1---|-------------7-6=|==-7---3-2---3---|
A|-3---2---3---3-2=|==-3-------------|-5---4---5---5-4=|==-5---1-0---1---|
E|-----------------|-------1-0---1---|-----------------|-----------------|
                                  gliss

      3       3         3       3
   ....... .......   ....... .......   | . | . | . | .   | . | . | . | .
E|---------0--0--0-|-1--1--1-2--2--2-|-----5==---------|-------2-3-5-7-9-|
B|-2--2--2-1--1--1-|-1--1--1-3--3--3-|----0===-----0---|-2-3-5-----------|
G|-1--1--1-0--0--0-|-2--2--2-2--2--2-|---0====-2-------|-----------------|
D|-2--2--2---------|-----------------|--0=====---------|-----------------|
A|-0--0--0---------|-----------------|-0======---------|-----------------|
E|---------3--3--3-|-1--1--1-0--0--0-|-----------------|-----------------|


Andante cantabile

   | . | . |  .  | .   | . | . | . | .   | . | . | . | .   | . | . | . | .
E|10------14-12-10---|---------------7-|-9------12-9-5-3-|-2-------2---3-5-|
B|-------7--------12-|-8-------8--10---|-------8---------|-------2---0-----|
G|-----7-------------|-------7---9-----|-----9-----------|-----2-----------|
D|-------------------|-----9-----------|-----------------|---0-------------|
A|-------------------|-----------------|---0-------------|-----------------|
E|---7---------------|---0-------------|-----------------|-----------------|


   | . | . | . | .   | . | . | . | .   | . | . | . | .   | . | . | . | .
E|-7------10-7-5-3-|-2-----2---------|-----------------|-----------------||
B|-------0---------|-----2---5-----2-|-3-----3-2-----3-|-0=====--0=====--||
G|-----0-----------|-------------3---|-----0-------3---|-----------------||
D|-----------------|-----------------|-------------2---|-------4=======--||
A|-----------------|-----------------|-----------------|-----5=========--||
E|---3-------------|---2-------2-----|---0-------2-----|---7===========--||
comments
We did not receive enough feedback on this tab! Please rate:
print report bad tab
1 2 3 4 5
I want to post or [tab]
guest
You may want to rate the tab now too:
select rating
Please do not post tabs as comments. Select "correction" instead!