Oops, an error
Loading. Please wait.

Always With Me Always With You Tab

ver2
ver2
More versions @911Tabs.com
13,727 views 4 this week
6 commentsread comments
1 2 3 4 5
accurate
x 5
add to favorites launch autoscroll
font size
0
reset
Autoscroll
+/-
esc
set tempo
stop
WARNING: You are trying to view
                                    content from Ultimate-Guitar.com
                                    in an unauthorized application,
                                    which is prohibited.

                                    Please use an official Ultimate
                                    Guitar Tabs application for iPhone,
                                    iPad or Android to access legitimate
                                    chords, guitar, bass, and drum tabs
                                    from Ultimate-Guitar.com database.

                                    Type "ultimate guitar tabs" in Apple
                                    App Store's or Android Market's
                                    search to find the application.
#----------------------------------PLEASE NOTE---------------------------------#
#This file is the author's own work and represents their interpretation of the #
#song. You may only use this file for private study, scholarship, or research. #
#------------------------------------------------------------------------------##


(E A D G B E) 



    Q=136
   3/4
    Gtr I
    PM--------------------------------------------------|
    E E E E E E   E E E E E E   E E E E E E   E E E E E E  3x
||--------------|-------------|-------------|--------------||
||o-------5-----|-------5-----|-------4-----|-------2-----o||
||------8---8---|-----8---8---|-----6---6---|-----4---4----||
||----9-------9-|---9-------9-|---6-------6-|---4-------4--||
||o-------------|-------------|-------------|-------------o||
||--7-----------|-7-----------|-0-----------|-2------------||


  PM--------------------------------------------------|
  E E E E E E   E E E E E E   E E E E E E   E E E E E E
|-------------|-------------|-------------|--------------||
|-------2-----|-------4-----|-------2-----|-------2------||
|-----4---4---|-----6---6---|-----4---4---|-----3---3----||
|---4-------4-|---6-------6-|---4-------4-|---4-------4--||
|-------------|-------------|-------------|--------------||
|-4-----------|-0-----------|-2-----------|-2------------||


 3/4
  Gtr I
  Q   E E E E   a H.             a Q.    E E E
|-------------|----------------|---------------|
|---------4-5-|-5s7------------|-7s9s====7---5p|
|-------4-----|----------------|---------------|
|-------------|----------------|---------------|
|-------------|----------------|---------------|
|-------------|----------------|---------------|
|
| Gtr II
| E E E E E E     E  E E E E E     E E E E E E
|-------------|----------------|---------------|
|-------5-----|----------5-----|---------4-----|
|-----8---8---|--------8---8---|-------6---6---|
|---9-------9-|------9-------9-|-----6-------6-|
|-------------|----------------|---------------|
|-7-----------|---7------------|---0-----------|


                     ~~~
  Q   E a E +Q      +H.
|-----------------|----------------|
|-4---5-----------|----------------|
|-------4s6-(6)---|-(6)------------|
|-----------------|----------------|
|-----------------|----------------|
|-----------------|----------------|
|
| E E E   E  E  E    E  E E E E E
|-----------------|----------------|
|---------2-------|---------5------|
|-----4------4----|-------8---8----|
|---4-----------4-|-----9-------9--|
|-----------------|----------------|
|-2---------------|--7-------------|


  a Q   E E +Q      Q.       +E  +E  E
|-----------------|--------------------|
|-----------------|--------------------|
|-6s4---6-8-(8)---|-8b9======(8)r(8)-6-|
|-----------------|--------------------|
|-----------------|--------------------|
|-----------------|--------------------|
|
|   E E E E  E  E   E    E E  E   E  E
|-----------------|--------------------|
|---------5-------|-----------4--------|
|-------8----8----|--------6------6----|
|-----9---------9-|------6-----------6-|
|-----------------|--------------------|
|---7-------------|-0------------------|


          ~~~~~~~               PM----|          PM--|
  Q.     +E  +Q      +E  +E   E E  E  E   Q.     E E E
|------------------|--------------------|--------------|
|------------------|--------------------|--------------|
|------------------|--------------------|-4------------|
|-4------(4)-(4)---|-(4)-(4)\---4-(2)-4-|--------4-4-4-|
|------------------|--------------------|--------------|
|------------------|--------------------|--------------|
|
| E  E E  E   E  E    E   E   E E  E  E   E  E E E E E
|------------------|--------------------|--------------|
|---------2--------|------------5-------|--------5-----|
|------4------4----|----------8----8----|------8---8---|
|----4-----------4-|------9-----------9-|----9-------9-|
|------------------|--------------------|--------------|
|-2----------------|--7-----------------|-7------------|


         ~~~
                                           |---3---|
  a Q   +Q    a Q     H       +E   E   E E Q   q   q
|-------------------|----------------|-----------------|
|-------------------|----------------|---4-----5---7---|
|-4s6---(6)---6s8s==|=6-------(6)\---|-4---------------|
|-------------------|----------------|-----------------|
|-------------------|----------------|-----------------|
|-------------------|----------------|-----------------|
|
|   E E  E  E   E E   E E E E  E   E   E E E E   E   E
|-------------------|----------------|-----------------|
|-----------4-------|-------2--------|-------2---------|
|--------6------6---|-----4----4-----|-----4-----4-----|
|-----6-----------6-|---4----------4-|---4-----------4-|
|-------------------|----------------|-----------------|
|---0---------------|-2--------------|-4---------------|


                  ~~
  a Q   E E E E   H.             a H.
|---------------|--------------|-----------------|
|-7s9s==7---5---|-4------------|-----------------|
|---------------|--------------|-4s6-------------|
|---------------|--------------|-----------------|
|---------------|--------------|-----------------|
|---------------|--------------|-----------------|
|
|   E E E E E E   E  E E E E E     E  E E E E E
|---------------|--------------|-----------------|
|---------4-----|--------2-----|----------2------|
|-------6---6---|------4---4---|--------3---3----|
|-----6-------6-|----4-------4-|------4-------4--|
|---------------|--------------|-----------------|
|---0-----------|-2------------|---2-------------|


      ~~                             ~~                ~~
                                                           |--3---| |---3---|
   a  H.             E E E E E E   a Q.     E E E   a  Q   E E    E E  E    E
|------------------|-------------|----------7---7-|----------9------9-11---12--|
|------------------|-----4-5-7---|-7s9------------|-9s11---------12------------|
|-(6)s4------------|---4---------|----------------|----------------------------|
|------------------|-------------|----------------|----------------------------|
|------------------|-------------|----------------|----------------------------|
|------------------|-------------|----------------|----------------------------|
|
|     E  E E E E E   E E E E E E     E  E E E E E      E E E   E    E    E
|------------------|-------------|----------------|----------------------------|
|------------5-----|-------5-----|----------4-----|------------2---------------|
|----------8---8---|-----8---8---|--------6---6---|--------4--------4----------|
|--------9-------9-|---9-------9-|------6-------6-|------4---------------4-----|
|------------------|-------------|----------------|----------------------------|
|-----7------------|-7-----------|---0------------|----2-----------------------|


      ~~                              ~~~~
   a  Q    +E   E  E  E       +Q     +H
|-12s14---(14)-11----------|-------------------|
|-----------------14-14b16-|-(14)---(14)-------|
|--------------------------|-------------------|
|--------------------------|-------------------|
|--------------------------|-------------------|
|--------------------------|-------------------|
|
|     E E   E   E  E  E        E  E   E  E E E
|--------------------------|-------------------|
|---------------5----------|-------------5-----|
|-----------8------8-------|----------8----8---|
|-------9-------------9----|------9----------9-|
|--------------------------|-------------------|
|-----7--------------------|---7---------------|


                                  ~~~~~~~
                    |---3----|              |---3---|
  E  Q        +E   +E   E    E    Q    Q    E  E    E
|---18b19====(18)r(18)p16------|-16--------16-18---19-|
|---------------------------19-|------19--------------|
|------------------------------|----------------------|
|------------------------------|----------------------|
|------------------------------|----------------------|
|-x----------------------------|----------------------|
|
| E  E     E   E    E     E       E E  E E  E    E
|------------------------------|----------------------|
|--------------4---------------|---------2------------|
|----------6--------6----------|-------4----4---------|
|----6--------------------6----|----4------------4----|
|------------------------------|----------------------|
|-0----------------------------|--2-------------------|


   Q.        E  +E   E       E     E  +E   +E
|-19b21-----19-(19)-------|-------------------------|
|-------------------17b19r|=17b19-17-(17)-(17)\-----|
|-------------------------|-------------------------|
|-------------------------|-------------------------|
|-------------------------|-------------------------|
|-------------------------|-------------------------|
|
|  E    E E  E   E   E       E     E   E    E   E E
|-------------------------|-------------------------|
|------------5------------|-----------------5-------|
|---------8------8--------|------------8--------8---|
|-------9------------9----|--------9--------------9-|
|-------------------------|-------------------------|
|--7----------------------|--7----------------------|


  E  E  +E   T  T  T  T  E  E    E  E  Q    +S   +E    S
|---16-(16)p15p14p13s12s11-14-|-12-11--------------------|
|-----------------------------|-------14---(14)-(14)-----|
|-----------------------------|--------------------------|
|-----------------------------|--------------------------|
|-----------------------------|--------------------------|
|-----------------------------|--------------------------|
|
| E  E   E   E           E  E    E  E  E E   E       E
|-----------------------------|--------------------------|
|------------4----------------|----------2---------------|
|--------6---------------6----|--------4-----4-----------|
|----6----------------------6-|-----4----------------4---|
|-----------------------------|--------------------------|
|-0---------------------------|--2-----------------------|


   E  E      +E   +E   E  E    E  E  Q        +E   +E
|-19------------------18----|-16-----------------------|
|---------------------------|-------19b21====(19)r(19)-|
|----18b20==(18)r(18)----16-|----16--------------------|
|---------------------------|--------------------------|
|---------------------------|--------------------------|
|---------------------------|--------------------------|
|
|  E  E       E    E   E  E    E  E  E     E   E    E
|---------------------------|--------------------------|
|------------------2--------|--------------4-----------|
|-------------4--------4----|--------6---------6-------|
|-----4-------------------4-|-----6-----------------6--|
|---------------------------|--------------------------|
|--4------------------------|--0-----------------------|


         ~~~~~~~~~~~~~~~~
   Q    +H           +h
|-----------------|----------------||-|
|-19---(19)-------|-(19)-----------||-|
|-----------------|----------------||-|
|-----------------|----------------||-|
|-----------------|----------------||-|
|-----------------|----------------||-|
|
|  E E   E  E E E     E  E E E E E
|-----------------|----------------||-|
|-----------2-----|----------2-----||-|
|--------4----4---|--------3---3---||-|
|----4----------4-|------4-------4-||-|
|-----------------|----------------||-|
|--2--------------|---2------------||-|


    ~~~~~~~~~                       ~~~~
   +Q    +Q.    E    Q.         E  +Q
|-----------------|-21b22------21-(21)---|
|-(19)--(19)---19-|----------------------|
|-----------------|----------------------|
|-----------------|----------------------|
|-----------------|----------------------|
|-----------------|----------------------|
|
|   H.               E    E  E  E   E  E
|---9-------------|----------------------|
|---7-------------|----------------------|
|---7-------------|-------7------------7-|
|---9-------------|-11------11-----11----|
|---9-------------|-------------9--------|
|---7-------------|----------------------|


                                           ~~
                        |--3--|
  E  Q        +E   +E   S  S  S    E.   S  Q    Q
|---14b15====(14)r(14)----------|-17p==15p14---14\---|
|-------------------------------|--------------------|
|----------------------17p15p14-|--------------------|
|-------------------------------|--------------------|
|-------------------------------|--------------------|
|-x-----------------------------|--------------------|
|
| E  E     E   E    E   E          E E     E E  E  E
|-------------------------------|--------------------|
|-------------------------------|--------------------|
|--------------0----------------|------------4-------|
|----------4--------4-----------|----------2----2----|
|----2------------------2-------|----4-------------4-|
|-0-----------------------------|--2-----------------|


                              |----6----|  |3|
  E. S    Q  +E  S  S    Q    S S S S S S  S E T T T T
|----9b11r9--(9)p7----|--7-----------------------------|
|------------------10-|------10p8p7--------------------|
|---------------------|-------------9p7p6h=7h9p7p6S4h6h|
|---------------------|--------------------------------|
|---------------------|--------------------------------|
|---------------------|--------------------------------|
|
| H.                     E E  E     E      E   E
|-9-------------------|--------------------------------|
|-7-------------------|--------------------------------|
|-7-------------------|----7-------------------7-------|
|-9-------------------|-11---11-----------11-----------|
|-9-------------------|-------------9------------------|
|-7-------------------|--------------------------------|


                                    ~~~~~~~~
  |---6---|          |----6-----|
  E S S S S S S S S +S  S S S S S   Q   +Q.     a E
|---------------------------------|------------------|
|---------------------------------|------------------|
|-7p6p4-----------4-(4)-----------|------------------|
|-------7p5p4h5h7-------7p5p4-----|------------------|
|-----------------------------7p5p|=4---(4)-----4s9s=|
|---------------------------------|------------------|
|
| E   E     E   E    E      E       E E  E  E E   E
|---------------------------------|------------------|
|---------------------------------|------------------|
|---------------0-----------------|---------4--------|
|-----------4--------4------------|------2----2------|
|-----2---------------------2-----|---4-----------4--|
|-0-------------------------------|-2----------------|


                        ~~~~~~~~~
  Q.    E   E. +S      +Q     Q     S S S S
|--------------------|----------------------|
|--------------------|--------------------7h|
|-----------6--(6)b7r|=(6)---(6)----6h7h9---|
|--------------------|----------------------|
|-2----(2)/----------|----------------------|
|--------------------|----------------------|
|
| H.                    E  E  E  E  E   E
|-9------------------|----------------------|
|-7------------------|----------------------|
|-7------------------|-----7------------7---|
|-9------------------|-11----11----11-------|
|-9------------------|-----------9----------|
|-7------------------|----------------------|


                                     ~~~~
  S  S S  S S S  S S  S S S    Q    +H
|------9h10p9p7----7--------|-----------------|
|-8h10----------10---10-8p7s|=11---(11)-------|
|---------------------------|-----------------|
|---------------------------|-----------------|
|---------------------------|-----------------|
|---------------------------|-----------------|
|
| E    E    E    E    E   E    E E   E  E E E
|---------------------------|-----------------|
|---------------------------|-----------------|
|----------------0----------|-----------4-----|
|-----------4---------4-----|--------2----2---|
|------2------------------2-|----4----------4-|
|-0-------------------------|--2--------------|


      ~~~~~~~~~~~~~~~~~~~~~~
   a  Q    +H           +Q.      E  E      +E     +Q.      a  E  +Q
|--------------------|-------------14b15==(14)r|=(14)------------------|
|-11s12---(12)-------|-(12)-----12-------------|-----------------------|
|--------------------|-------------------------|----------15s11-(11)---|
|--------------------|-------------------------|-----------------------|
|--------------------|-------------------------|-----------------------|
|--------------------|-------------------------|-----------------------|
|
|     E E   E  E E E     E  E E  E  E       E      E  E E     E   E  E
|--------------------|-------------------------|-----------------------|
|--------------------|-------------------------|-----------------------|
|--------------4-----|-----------0-------------|--------------4--------|
|-----------7----7---|--------4-----4----------|--------2---------2----|
|-------5----------5-|------2---------------2--|------4--------------4-|
|-----3--------------|---0---------------------|---2-------------------|


     ~~~~~~~~~~~~~~~~~~~~~~
   a H.             +E  E.    E        +E     +Q
|-----------------|----------------------------------|
|-----------------|----------14b15====(14)r==(14)----|
|-----------------|----------------------------------|
|-----------------|----------------------------------|
|-13s9------------|-(9)-9/---------------------------|
|-----------------|----------------------------------|
|
|    E  E E E E E    E  E  E        E      E      E
|-----------------|----------------------------------|
|-----------------|----------------------------------|
|-----------3-----|-----------------4----------------|
|---------2---2---|--------7---------------7---------|
|-------4-------4-|-----5-------------------------5--|
|----2------------|--3-------------------------------|


   ~~
   H        E      +E     +H         +Q
|----------14b15==(14)r|=(14)-------(14)---|
|-12-------------------|-------------------|
|----------------------|-------------------|
|----------------------|-------------------|
|----------------------|-------------------|
|----------------------|-------------------|
|
|  E E E E  E       E      E  E E E   E  E
|----------------------|-------------------|
|----------------------|-------------------|
|--------0-------------|----------4--------|
|------4----4----------|--------2-----4----|
|----2--------------2--|------4----------4-|
|--0-------------------|---2---------------|


    ~~~~                                 ~~~
   +H        E  E    Q   E  a  E E  E    H.
|-(14)---------12p|=11----------------|---------------||-|
|-----------------|--------12s14---12p|=11------------||-|
|-----------------|-------------------|---------------||-|
|-----------------|-------------------|---------------||-|
|-----------------|-------------------|---------------||-|
|-----------------|-------------------|---------------||-|
|
|   E  E E E E  E    E E E     E E  E    E  E E E E E
|-----------------|-------------------|---------------||-|
|-----------------|-------------------|---------------||-|
|----------4------|------------3------|---------3-----||-|
|--------2---2----|------2-------2----|-------2---2---||-|
|------4--------4-|----4------------4-|-----4-------1-||-|
|---2-------------|--2----------------|--2------------||-|


      ~~~                      ~~~~
   a  Q.      E  E  E    Q    +Q.     E
|---------------11h12-|-14---(14)-------|
|-11h12------12-------|-----------------|
|---------------------|-----------------|
|---------------------|-----------------|
|---------------------|-----------------|
|---------------------|-----------------|
|
|     PM---------------------------------
|     E  E E  E  E  E    E E   E  E E E
|---------------------|-----------------|
|-------------5-------|-----------5-----|
|----------8-----8----|--------8----8---|
|--------9----------9-|----9----------9-|
|---------------------|-----------------|
|-----7---------------|--7--------------|


      ~~~                              ~~~~
   a  Q.      E E  E    Q    E  a  E  +Q       H       Q
|-14h16------14---12p|=11---12--------------|--------------|
|--------------------|---------12s14-(14)---|-14-----------|
|--------------------|----------------------|--------------|
|--------------------|----------------------|--------------|
|--------------------|----------------------|--------------|
|--------------------|----------------------|--------------|
|
|--------------------------------------------------------|
|     E  E E  E E  E    E E  E     E   E  E    E E E E E E
|--------------------|----------------------|--------------|
|-------------4------|-------------2--------|--------5-----|
|----------6----6----|-------4---------4----|------8---8---|
|--------6---------6-|----4---------------4-|----9-------9-|
|--------------------|----------------------|--------------|
|-----0--------------|--2-------------------|--7-----------|


   a  Q    E  E  +Q       Q        +E   +E   +E  E
|------------11-(11)---|-11b12====(11)r(11)-(11)-9-|
|-14s12h==14-----------|---------------------------|
|----------------------|---------------------------|
|----------------------|---------------------------|
|----------------------|---------------------------|
|----------------------|---------------------------|
|
|     PM--------------------------------------------
|     E E  E  E   E  E    E     E   E    E    E  E
|----------------------|---------------------------|
|-------------5--------|-----------------4---------|
|----------8------8----|------------6---------6----|
|-------9------------9-|--------6----------------6-|
|----------------------|---------------------------|
|-----7----------------|--0------------------------|


      ~~~~~~~~~~~~~~~~~~~~     PM---|     ~~~        PM
   a  H.              +Q    E  E  E  E    Q.      E  E  E
|------------------|-------------------|-------------------|
|------------------|-------------------|-12----------------|
|-13-11------------|-(11)-----11-11-11-|---------11-11-11--|
|------------------|-------------------|-------------------|
|------------------|-------------------|-------------------|
|------------------|-------------------|-------------------|
|
|------------------------------------------------------|
|     E  E E E E E     E  E E  E  E  E    E  E E  E  E  E
|------------------|-------------------|-------------------|
|------------2-----|-----------5-------|----------5--------|
|----------4---4---|--------8-----8----|-------8-----8-----|
|--------4-------4-|------9----------9-|-----9----------9--|
|------------------|-------------------|-------------------|
|-----2------------|---7---------------|--7----------------|


                                  ~~~~
   a  Q.     E  Q         +Q     +Q.     E
|----------------------|-------------------|
|-12s14--------14b16r==|=(14)---(14)-------|
|----------------------|-------------------|
|----------------------|-------------------|
|----------------------|-------------------|
|----------------------|-------------------|
|
|     PM------------------------------------
|     E  E E E  E    E     E  E   E  E E E
|----------------------|-------------------|
|------------4---------|-------------2-----|
|----------6----6------|----------4----4---|
|--------6-----------6-|------4----------4-|
|----------------------|-------------------|
|-----0----------------|---2---------------|


        |----3----|
   E  E Q    q    q      Q       E E  E E
|----11-----12---14---|-14b16r==14---12---|
|-12------------------|-------------------|
|---------------------|-------------------|
|---------------------|-------------------|
|---------------------|-------------------|
|---------------------|-------------------|
|
|---------------------------------------|
|  E  E E E    E    E    E    E  E E  E E
|---------------------|-------------------|
|---------2-----------|------------4------|
|-------4------4------|----------6----6---|
|-----4-------------4-|-------6---------6-|
|---------------------|-------------------|
|--4------------------|--0----------------|


   ~~~~~~~~~~~~~     ~~~~~~~~~~~~~
   H        +E  E    H        +E  E
|-11-------(11)---|-----------------||
|-----------------|-14-------(14)---||
|-----------------|-----------------||
|-----------------|-----------------||
|-----------------|-----------------||
|-----------------|-----------------||
|
|  PM---------------------------------
|  E E E E   E  E    E E E E   E  E
|-----------------|-----------------||
|--------2--------|--------2--------||
|------4-----4----|------3-----3----||
|----4----------4-|----4----------4-||
|-----------------|-----------------||
|--2--------------|--2--------------||


   ~~                T     T       T      T      T
   H        +E  E    a  S  S S  S  S S S  S S S  S S
|-----------------|------------------------------------|
|-12-------(12)---|-12p11-12p0h11-12p0h9-12p0h7-12p0h==|
|-----------------|------------------------------------|
|-----------------|------------------------------------|
|-----------------|------------------------------------|
|-----------------|------------------------------------|
|
|-----------------------------------------------|
|  E E E E   E  E       E    E     E   E    E    E
|-----------------|------------------------------------|
|--------5--------|--------------------5---------------|
|------8-----8----|----------------8--------8----------|
|----9----------9-|----------9-------------------9-----|
|-----------------|------------------------------------|
|--7--------------|-----7------------------------------|


     T      T      T      T        T      T      T      T
  S  S S S  S S S  S S S  S S   S  S S S  S S S  S S S  S S
|-----------------------------|-----------------------------|
|-9-12p0h7-12p0h5-12p0h9-12p0h|=7-12p0h7-12p0h7-12p0h7-12p0h|
|-----------------------------|-----------------------------|
|-----------------------------|-----------------------------|
|-----------------------------|-----------------------------|
|-----------------------------|-----------------------------|
|
| PM---------------------------------------------------------
| E    E    E   E    E    E     E    E    E   E    E    E
|-----------------------------|-----------------------------|
|---------------4-------------|---------------2-------------|
|-----------6--------6--------|-----------4--------4--------|
|------6------------------6---|------4------------------4---|
|-----------------------------|-----------------------------|
|-0---------------------------|-2---------------------------|


      T       T      T      T
   S  S S  S  S S S  S S S  S S
|----------------------------------|
|-11-12p0h11-12p0h9-12p0h7-12p0h===|
|----------------------------------|
|----------------------------------|
|----------------------------------|
|----------------------------------|
|
|--------------------------|
|  E    E     E   E    E    E
|----------------------------------|
|-----------------5----------------|
|-------------8--------8-----------|
|-------9-------------------9------|
|----------------------------------|
|--7-------------------------------|


     T      T      T      T        T      T      T      T
  S  S S S  S S S  S S S  S S   S  S S S  S S S  S S S  S S
|-----------------------------|-----------------------------|
|-9-12p0h7-12p0h5-12p0h7-12p0h|=9-12p0h7-12p0h5-12p0h4-12p0h|
|-----------------------------|-----------------------------|
|-----------------------------|-----------------------------|
|-----------------------------|-----------------------------|
|-----------------------------|-----------------------------|
|
| PM---------------------------------------------------------
| E    E    E   E    E    E     E    E    E   E    E    E
|-----------------------------|-----------------------------|
|---------------5-------------|---------------4-------------|
|-----------8--------8--------|-----------6--------6--------|
|------9------------------9---|------6------------------6---|
|-----------------------------|-----------------------------|
|-7---------------------------|-0---------------------------|


     T      T      T      T
  S  S S S  S S S  S S S  S S
|--------------------------------|
|-2-12p0h2-12p0h2-12p0h2-12p0h===|
|--------------------------------|
|--------------------------------|
|--------------------------------|
|--------------------------------|
|
|------------------------|
| E    E    E   E    E    E
|--------------------------------|
|---------------2----------------|
|-----------4--------4-----------|
|------4------------------4------|
|--------------------------------|
|-2------------------------------|


      T       T      T      T        T      T      T      T
   S  S S  S  S S S  S S S  S S   S  S S S  S S S  S S S  S S
|-------------------------------|-----------------------------|
|-11-12p0h11-12p0h9-12p0h7-12p0h|=9-12p0h7-12p0h5-12p0h7-12p0h|
|-------------------------------|-----------------------------|
|-------------------------------|-----------------------------|
|-------------------------------|-----------------------------|
|-------------------------------|-----------------------------|
|
|  PM----------------------------------------------------------
|  E    E     E   E    E    E     E    E    E   E    E    E
|-------------------------------|-----------------------------|
|-----------------5-------------|---------------5-------------|
|-------------8--------8--------|-----------8--------8--------|
|-------9-------------------9---|------9------------------9---|
|-------------------------------|-----------------------------|
|--7----------------------------|-7---------------------------|


     T      T      T      T
  S  S S S  S S S  S S S  S S
|--------------------------------|
|-9-12p0h7-12p0h5-12p0h4-12p0h===|
|--------------------------------|
|--------------------------------|
|--------------------------------|
|--------------------------------|
|
|------------------------|
| E    E    E   E    E    E
|--------------------------------|
|---------------4----------------|
|-----------6--------6-----------|
|------6------------------6------|
|--------------------------------|
|-0------------------------------|


     T      T      T      T
  S  S S S  S S S  S S S  S S    Q.     E E  E
|-----------------------------|----------------|
|-5-12p0h5-12p0h5-12p0h5-12p0-|-/9------7s9s12-|
|-----------------------------|-/8------6s8s11-|
|-----------------------------|----------------|
|-----------------------------|----------------|
|-----------------------------|----------------|
|
| PM--------------------------------------------
| E    E    E   E    E    E      E  E E E E  E
|-----------------------------|----------------|
|---------------2-------------|---------2------|
|-----------4--------4--------|-------4---4----|
|------4------------------4---|-----4--------4-|
|-----------------------------|----------------|
|-2---------------------------|--4-------------|


   a  Q.      E  E      H.
|--------------------|-12-------------|
|-12s14------12-14---|--9-------------|
|-11s13------11-13---|----------------|
|--------------------|----------------|
|--------------------|----------------|
|--------------------|----------------|
|
|----------------------------------|
|     E  E E  E  E E    E  E E E E E
|--------------------|----------------|
|-------------4------|---------2------|
|----------6-----6---|-------4---4----|
|--------6---------6-|-----4-------4--|
|--------------------|----------------|
|-----0--------------|--2-------------|


                    ~~
                                         |--3--|
   H.               Q    +S   +S   S  S  S  S  S  +S   S
|-14------------||-14---(14)---------------16-19-(19)p16-|
|-11------------||-12---(12)-(12)s19-16h19---------------|
|---------------||---------------------------------------|
|---------------||---------------------------------------|
|---------------||---------------------------------------|
|---------------||---------------------------------------|
|
|  PM-----------------------------------------------------
|  E  E E E E E     E E   E        E     E         E
|---------------||---------------------------------------|
|---------2-----||-----------------5---------------------|
|-------3---3---||--------8--------------8---------------|
|-----4-------4-||----9----------------------------9-----|
|---------------||---------------------------------------|
|--2------------||--7------------------------------------|


   Q.      S  S S E
|-19------16-----------|
|------------19---0----|
|----------------------|
|----------------------|
|----------------------|
|----------------------|
|
|-------------------|
|  E  E E  E    E   E
|----------------------|
|----------5-----------|
|-------8-------8------|
|-----9-------------9--|
|----------------------|
|--7-------------------|


         ~~~~                               ~~~               ~~~
   Q    +Q     S  S  S  S        E  +S   S  Q.     E   E E   +Q    S S E
|-21---(21)---19----19-21b23==|=21r(21)p19-21--------|-------------4-7-4-|
|----------------21-----------|----------------------|-------------------|
|-----------------------------|----------------------|---6b8-(6)---------|
|-----------------------------|----------------------|-------------------|
|-----------------------------|----------------------|-------------------|
|-----------------------------|--------------------x-|-x-----------------|
|
|  PM------------------------------------------------------------------|
|  E E   E  E  E     E           E   E      E  E E E   E E    E  E E   E
|-----------------------------|----------------------|-------------------|
|-----------4-----------------|----------------2-----|-----------5-------|
|--------6-----6--------------|-------------4----4---|--------8----8-----|
|----6---------------6--------|------4-------------4-|---9-------------9-|
|-----------------------------|----------------------|-------------------|
|--0--------------------------|--2-------------------|-7-----------------|


  ~~~
  Q     S S S S S S S S   S S S S S S S S S S S S   Q   +Q.     a S E E
|-------4-7p4---4-------|-------------------------|---------------------|
|-------------7---4-7p4-|---4---------------------|---------------------|
|-6b8-------------------|-6---7-6-4---------------|---------------------|
|-----------------------|-----------6-4-----------|---------------------|
|-----------------------|---------------6-4p2-4p2-|-4---(4)-----4sxsx-1-|
|-----------------------|-------------------------|---------------------|
|
| PM--------------------------------------------------------------|
| E   E E   E   E   E     E   E   E   E   E   E     E E  E  E E   E
|-----------------------|-------------------------|---------------------|
|-----------5-----------|-------------4-----------|---------2-----------|
|-------8-------8-------|---------6-------6-------|------4----4---------|
|-----9-------------9---|-----6---------------6---|---4-----------4-----|
|-----------------------|-------------------------|---------------------|
|-7---------------------|-0-----------------------|-2-------------------|


  Q   +E    E  +E   +E
|----------11-(11)-(11)b12r|
|--------------------------|
|--------------------------|
|--------------------------|
|-2---(2)/-----------------|
|--------------------------|
|
| PM------------------------
| E E  E    E   E    E
|--------------------------|
|-----------5--------------|
|------8--------8----------|
|---9----------------9-----|
|--------------------------|
|-7------------------------|


                             |-3--|        |-3--|
   E  S     +S   +E  S  S E  S  S S    Q   S  S S E E E
|-11-11b13r(11)-(11)p9----9---------|-------------------|
|----------------------12---12-11-9-|-11---9h11p9s7-9-7-|
|-----------------------------------|-------------------|
|-----------------------------------|-------------------|
|-----------------------------------|-------------------|
|-----------------------------------|-------------------|
|
|-----------------------------------------------------|
|  E  E           E  E    E  E         E E E      E E E
|-----------------------------------|-------------------|
|--------------------5--------------|-------------4-----|
|-----------------8-------8---------|------6--------6---|
|-----9----------------------9------|----6------------6-|
|-----------------------------------|-------------------|
|--7--------------------------------|--0----------------|


  ~
  Q   +E.   a  S E  E    Q.         E  +E   E
|---------------------|-21b23======21-(21)r21-|
|------------------19-|-----------------------|
|-9---(9)---9s18------|-----------------------|
|---------------------|-----------------------|
|---------------------|-----------------------|
|---------------------|-----------------------|
|
| PM-------------------------------------------
| E E  E  E      E  E    E     E E  E   E   E
|---------------------|-----------------------|
|---------2-----------|-------------2---------|
|------4---------4----|----------4------4-----|
|---4---------------4-|--------4------------4-|
|---------------------|-----------------------|
|-2-------------------|--4--------------------|


   ~~~                         ~~~~~                 ~~~
   Q.      E      +E   +E     +Q     Q    E E   Q   +H
|-19------21b23==(21)-(21)-|-(21)r---x\-------|----------------||
|--------------------------|------------------|----------------||
|--------------------------|------------------|----------------||
|--------------------------|--------------4s6s|=4---(4)--------||
|--------------------------|------------------|----------------||
|--------------------------|---------x\-------|----------------||
|
|-----------------------------------------------------------|
|  E  E E  E       E    E      E   E E  E E E   E E  E  E E E
|--------------------------|------------------|----------------||
|----------4---------------|------------2-----|---------2------||
|-------6----------6-------|---------4----4---|------3----3----||
|-----6-----------------6--|-------4--------4-|---4---------4--||
|--------------------------|------------------|----------------||
|--0-----------------------|---2--------------|-2--------------||


  Q   E E E E   a H.             a Q.    E E E
|-------------|----------------|---------------|
|---------4-5-|-5s7------------|-7s9s====7---5p|
|-------4-----|----------------|---------------|
|-------------|----------------|---------------|
|-------------|----------------|---------------|
|-------------|----------------|---------------|
|
| E E E E E E     E  E E E E E     E E E E E E
|-------------|----------------|---------------|
|-------5-----|----------5-----|---------4-----|
|-----8---8---|--------8---8---|-------6---6---|
|---9-------9-|------9-------9-|-----6-------6-|
|-------------|----------------|---------------|
|-7-----------|---7------------|---0-----------|


                     ~~~
  Q   E a E +Q      +H.
|-----------------|---------------|
|-4---5-----------|---------------|
|-------4s6-(6)---|-(6)-----------|
|-----------------|---------------|
|-----------------|---------------|
|-----------------|---------------|
|
| E E E   E  E  E    E  E E E E E
|-----------------|---------------|
|---------2-------|---------5-----|
|-----4------4----|-------8---8---|
|---4-----------4-|-----9-------9-|
|-----------------|---------------|
|-2---------------|--7------------|


  a Q   E E +Q      Q.       +E  +E  E
|-----------------|--------------------|
|-----------------|--------------------|
|-6s4---6-8-(8)---|-8b9======(8)r(8)-6-|
|-----------------|--------------------|
|-----------------|--------------------|
|-----------------|--------------------|
|
|   E E E E  E  E   E    E E  E   E  E
|-----------------|--------------------|
|---------5-------|-----------4--------|
|-------8----8----|--------6------6----|
|-----9---------9-|------6-----------6-|
|-----------------|--------------------|
|---7-------------|-0------------------|


          ~~~~~~~               PM----|          PM--|
  Q.     +E  +Q      +E  +E   E E  E  E   Q.     E E E
|------------------|--------------------|--------------|
|------------------|--------------------|--------------|
|------------------|--------------------|-4------------|
|-4------(4)-(4)---|-(4)-(4)\---4-(2)-4-|--------4-4-4-|
|------------------|--------------------|--------------|
|------------------|--------------------|--------------|
|
| E  E E  E   E  E    E   E   E E  E  E   E  E E E E E
|------------------|--------------------|--------------|
|---------2--------|------------5-------|--------5-----|
|------4------4----|----------8----8----|------8---8---|
|----4-----------4-|------9-----------9-|----9-------9-|
|------------------|--------------------|--------------|
|-2----------------|--7-----------------|-7------------|


         ~~~
                                           |---3---|
  a Q   +Q    a Q     H       +E   E   E E Q   q   q     a Q   E E E E
|-------------------|----------------|-----------------|---------------|
|-------------------|----------------|---4-----5---7---|-7s9s==7---5---|
|-4s6---(6)---6s8s==|=6-------(6)\---|-4---------------|---------------|
|-------------------|----------------|-----------------|---------------|
|-------------------|----------------|-----------------|---------------|
|-------------------|----------------|-----------------|---------------|
|
|                                      PM----------------------------|
|   E E  E  E   E E   E E E E  E   E   E E E E   E   E     E E E E E E
|-------------------|----------------|-----------------|---------------|
|-----------4-------|-------2--------|-------2---------|---------4-----|
|--------6------6---|-----4----4-----|-----4-----4-----|-------6---6---|
|-----6-----------6-|---4----------4-|---4-----------4-|-----6-------6-|
|-------------------|----------------|-----------------|---------------|
|---0---------------|-2--------------|-4---------------|---0-----------|


       ~~~               ~~~
  Q   +H          a Q   +H
|---------------|-----------------||
|-4---(4)-------|-----------------||
|---------------|-4-6---(6)-------||
|---------------|-----------------||
|---------------|-----------------||
|---------------|-----------------||
|
| PM----------------------------|
| E E  E  E E E     E E  E  E E E
|---------------|-----------------||
|---------2-----|-----------2-----||
|------4----4---|--------3----3---||
|---4---------4-|-----4---------4-||
|---------------|-----------------||
|-2-------------|---2-------------||


                                      ~~
  a Q   +Q.      E    E E E E E E   a Q.     E E E
|-------------------|-------------|-----------------|
|-6s4---(4)-----(4)-|-----4-5-7---|-7s9------7---5p=|
|-------------------|---4---------|-----------------|
|-------------------|-------------|-----------------|
|-------------------|-------------|-----------------|
|-------------------|-------------|-----------------|
|
|   E E  E  E E  E    E E E E E E     E  E E E E E
|-------------------|-------------|-----------------|
|-----------5-------|-------5-----|----------5------|
|--------8----8-----|-----8---8---|--------8---8----|
|-----9----------9--|---9-------9-|------9-------9--|
|-------------------|-------------|-----------------|
|---7---------------|-7-----------|---0-------------|


                     ~~~
                                           |-5-|     |3-|  |-3-|
  Q   E a E +Q      +H.             E S S  S S E.   +E  S  S S S
|-----------------|---------------|--------------------------------|
|-4---5-----------|---------------|--------------------------------|
|-------4h6-(6)---|-(6)-----------|----------8-9----(9)-8----------|
|-----------------|---------------|---8h9-11--------------11p9p8s==|
|-----------------|---------------|--------------------------------|
|-----------------|---------------|--------------------------------|
|
| E E E   E  E  E    E  E E E E E   E E    E      E  E     E
|-----------------|---------------|--------------------------------|
|---------5-------|---------5-----|--------------------------------|
|-----8------8----|-------8---8---|---------------5----------------|
|---9-----------9-|-----9-------9-|--------8---------8-------------|
|-----------------|---------------|---9--------------------9-------|
|-0---------------|--7------------|-7------------------------------|


  |-3-|      |-3--| |-3-| |-3-|
  S S S +E  +S  S S S S S S S S +E
|-----------------------------------|
|-----------------------------------|
|-----------------------------------|
|-6h8h9-(9)-(9)p8p6-----------6-(6)-|
|-------------------9p7h8p7h9-------|
|-----------------------------------|
|
| E      E   E      E     E      E
|-----------------------------------|
|-------------------5---------------|
|------------8------------8---------|
|--------9-----------------------9--|
|-----------------------------------|
|-7---------------------------------|


             |3-|
  T T T T E +E  S T T T T +E  S S   H.        +H     Q
|---------------------------------|---------|-------------||
|---------------------------------|---------|-------------||
|---------------------------------|---------|-------------||
|---------------------------------|---------|-------------||
|-9p7p6h7h9-(9)p7p6---6h7-(7)p6---|---------|-------------||
|-------------------9-----------9-|-7-------|-(7)---------||
|
| E       E  E    E        E  E
|---------------------------------|---------|-------------||
|-----------------5---------------|---------|-------------||
|------------8-------------8------|---------|-------------||
|---------9-------------------9---|---------|-------------||
|---------------------------------|---------|-------------||
|-7-------------------------------|---------|-------------||


                                                       2/4
  Gtr II
                                                              |-3-|
  a E E E E E E   E E E E E E   Q  Q  Q    H    a E E   E E E S S S
|-0h2-----2-----|-0h2-----2---|-0--2--4--|-0----0h2---|-2-----4p2p0-|
|-------0-----0-|-------0-----|-0--0--0--|-0----------|-----0-------|
|-----4-----4---|-----4-----4-|----------|----------4-|---4---------|
|---------------|-------------|----------|------------|-------------|
|---------------|-------------|----------|------------|-------------|
|---------------|-------------|----------|------------|-------------|


                                                          \2.5
                                            ~~~~~~~~~~~~
        |-3-|           |-3-|
  E E E S S S   E E +E  S S S   E E +Q     +H       +Q   +E    E
|-2-----4p2p0-|-2-------4p2p0-|-2--------|--------|--------------*|
|-----0-------|---0-(0)-------|---0-(0)--|-(0)----|-(0)--(0)-----*|
|---4---------|---------------|----------|--------|--------------*|
|-------------|---------------|----------|--------|--------------*|
|-------------|---------------|----------|--------|--------------*|
|-------------|---------------|----------|--------|--------------*|


Duration Legend
---------------
W - whole; H - half; Q - quarter; E - 8th; S - 16th; T - 32nd; X - 64th; a - acciaccatura
+ - note tied to previous; . - note dotted; .. - note double dotted
Uncapitalized letters represent notes that are staccato (1/2 duration)
Irregular groupings are notated above the duration line
Duration letters will always appear directly above the note/fret number it represents the
duration for.  Duration letters with no fret number below them represent rests.  Multi-
bar rests are notated in the form Wxn, where n is the number of bars to rest for.  Low
melody durations appear below the staff

Tablature Legend
----------------
 h   - hammer-on
 p   - pull-off
 b   - bend
 pb  - pre-bend
 r   - bend release (if no number after the r, then release immediately)
 /\  - slide into or out of (from/to "nowhere")
 s   - legato slide
 S   - shift slide
<n>  - natural harmonic
[n]  - artificial harmonic
n(n) - tapped harmonic
 ~   - vibrato
 tr  - trill
 T   - tap
 TP  - trem. picking
 PM  - palm muting
\n/  - tremolo bar dip; n = amount to dip
 \n  - tremolo bar down
 n/  - tremolo bar up
/n\  - tremolo bar inverted dip
 =   - hold bend; also acts as connecting device for hammers/pulls
 <>  - volume swell (louder/softer)
 x   - on rhythm slash represents muted slash
 o   - on rhythm slash represents single note slash

Misc Legend
-----------
 |  - bar
||  - double bar
||o - repeat start
o|| - repeat end
*|  - double bar (ending)
 :  - bar (freetime)
 $  - Segno
 &  - Coda
Tempo markers - <E/E./Q/Q./H/H.> = BPM(8/16=s8/s16), where s8 = swing 8ths, s16 = swing 16ths


***************************************************************************************
* Generated using Power Tab Editor by Brad Larsen - http://powertab.guitarnetwork.org *
***************************************************************************************
comments
print report bad tab
6 comments total. Showing first comments.
0 reply
zwood wrote on October 27 2002, 12:00 am



umm...err i think u copyed it..........

+1 reply
fowlup182 wrote on February 4 2003, 12:00 am

not bad hard to understand though

0 reply
Turcas wrote on October 7 2004, 12:00 am

its pretty good, but its really messy and hard to understand

I want to post or [tab]
guest
You may want to rate the tab now too:
select rating
Please do not post tabs as comments. Select "correction" instead!