Oops, an error
Loading. Please wait.

Always With Me Always With You Tab

ver6
ver6
More versions @911Tabs.com
6,320 views 21 this week
no commentswrite comment
1 2 3 4 5
excellent!
x 1
add to favorites launch autoscroll
font size
0
reset
Autoscroll
+/-
esc
set tempo
stop
Contributor
Difficulty
intermediate
WARNING: You are trying to view
                                    content from Ultimate-Guitar.com
                                    in an unauthorized application,
                                    which is prohibited.

                                    Please use an official Ultimate
                                    Guitar Tabs application for iPhone,
                                    iPad or Android to access legitimate
                                    chords, guitar, bass, and drum tabs
                                    from Ultimate-Guitar.com database.

                                    Type "ultimate guitar tabs" in Apple
                                    App Store's or Android Market's
                                    search to find the application.
Main solo
Key B major/minor
Tuning: Standard

E|----------------------------------------------------------------------|
B|--4---5--5/7~-----7/9---7---5--4-----5--------------------------------|
G|----------------------------------------4/6~~~~~-----\4---6--/8--/9---|
D|----------------------------------------------------------------------|
A|----------------------------------------------------------------------|
E|----------------------------------------------------------------------|

                pm  pm            pm  pm
E|----------------------------------------------------------------------|
B|-----------------------------------------------------------4--5--7----|
G|-8---6-------------------4*~-------------6~----/8\6~-----4------------|
D|--------4~----4--4--------------4--4----------------------------------|
A|----------------------------------------------------------------------|
E|----------------------------------------------------------------------|

E|------------------------------------------7--7--------9p7-9p7-9/11~---|
B|7/9--7-5-4~---2-------------4--5--5/7--/9-------11~-------------------|
G|----------------/4~---------------------------------------------------|
D|----------------------------------------------------------------------|
A|----------------------------------------------------------------------|
E|----------------------------------------------------------------------|

E|-/14--11-------------------18^--16------18^--------16^---19^----19----|
B|----------14--14^14~----------------19----------19--------------------|
G|----------------------------------------------------------------------|
D|----------------------------------------------------------------------|
A|----------------------------------------------------------------------|
E|----------------------------------------------------------------------|

E|-/14~----16--12--14--12-----------19------18----16---------------------|
B|------------------------16-14~------------------------19^19------------|
G|-------------------------------------18^-----16----16------------------|Key changes
D|-----------------------------------------------------------to B minor--|
A|-----------------------------------------------------------------------|
E|-----------------------------------------------------------------------|

E|-------21^21--14^14--12p10-12p10-------/17-14~------------------------|
B|-12Nh----------------------------14p10--------------------------------|
G|----------------------------------------------------------------------|
D|----------------------------------------------------------------------|
A|----------------------------------------------------------------------|
E|----------------------------------------------------------------------|

E|-9^9--7h9h10p9p7------------------------------------------------------|
B|-----------------10p8p7-----------------------------------------------|
G|-------------------------9p7p6h7h9p7p6-4h6h7p6p4----------------------|
D|--------------------------------------------------7p5p4---------------|
A|--------------------------------------------------------7p5p4--2/4----|
E|----------------------------------------------------------------------|

E|-14^14~---------------------------------------------------------14^14-|
B|-----------------------------12h14h15p14p12--------/11~--12~--12------|
G|---------------------11h12h14--------------14p12p11-------------------|
D|-------------11h12h14-------------------------------------------------|
A|--------12h14---------------------------------------------------------|
E|----------------------------------------------------------------------|

E|-----------------14^14---12-11-9-7p6~---------------------------------|
B|--------14^14-12------------------------------------------------------|
G|11~------------------------------------ Key Change Back to Bmajor ----|
D|----------------------------------------------------------------------|
A|---9~-----------------------------------------------------------------|
E|----------------------------------------------------------------------|

E|-11-12-/14~----/16~~-14-12-11h12-------------11-12-11-----------------|
B|----------------------------------14~--12-14----------14--------------|
G|--------------------------------------------------------11~-----------|
D|----------------------------------------------------------------------|
A|----------------------------------------------------------------------|
E|----------------------------------------------------------------------|

E|----------------------------11-12-14-14/16-14-12-11~-9~-7~-------------|
B|-------12~----14~-14/16-14~--------------------------------------------|
G|-11-11----11-11--------------------------------------------------------| Tapping ...
D|-----------------------------------------------------------------------|
A|-----------------------------------------------------------------------|
E|-----------------------------------------------------------------------|

E|----------------------------------------------------------------------|
B|-t12p0t11-t12p0t9-t12p0t7-t12p0t9-t12p0t7-t12p0t5-t12p0t7-t12p0t5-----|
G|----------------------------------------------------------------------|
D|----------------------------------------------------------------------|
A|----------------------------------------------------------------------|
E|----------------------------------------------------------------------|

                   |- x4 -|
E|----------------------------------------------------------------------|
B|-t12p0t4-t12p0t5-t12p0t4-t12p0t11-t12p0t9-t12p0t7-t12p0t9-t12p0t7-----|
G|----------------------------------------------------------------------|
D|----------------------------------------------------------------------|
A|----------------------------------------------------------------------|
E|----------------------------------------------------------------------|

E|----------------------------------------------------------------------|
B|-t12p0t5-t12p0t7-t12p0t5-t12p0t4-t12p0t5-t12p0t4-t12p0t2-t12p0t4------|
G|----------------------------------------------------------------------|
D|----------------------------------------------------------------------|
A|----------------------------------------------------------------------|
E|----------------------------------------------------------------------|

   |- x4 -|
E|----------------------------------------------------------------------|
B|-t12p0t2-t12p0t11-t12p0t9-t12p0t7-t12p0t9-t12p0t7-t12p0t5-t12p0t7-----|
G|----------------------------------------------------------------------|
D|----------------------------------------------------------------------|
A|----------------------------------------------------------------------|
E|----------------------------------------------------------------------|

                           |- x4 -|
E|-------------------------------------------------------------12-/14-14-|
B|-t12p0t5-t12p0t4-t12p0t5-t12p0t4-9---7/9--/12--/14--12--/14--9--/11-11-|
G|---------------------------------8---6/8--/11--/13--11--/13------------|
D|-----------------------------------------------------------------------|
A|-----------------------------------------------------------------------|
E|-----------------------------------------------------------------------|

E|-14-------/19--19~---16-------19^19--16-------------------------------|
B|-12---------------------19-16-----------------------------------------|
G|----------------------------------------------------------------------|
D|----------------------------------------------------------------------|
A|----------------------------------------------------------------------|
E|----------------------------------------------------------------------|

E|--------21^21--19--21~--\-------------4------------------------4------|
B|-19-16----------------------------------7-4-----4----------------6-4--|
G|---------------------------6^6-6^6----------6^----7-6-4--6^6^6--------|
D|----------------------------------------------------------------------|
A|----------------------------------------------------------------------|
E|----------------------------------------------------------------------|

E|-----4------------------------------------------7--11\10/11^11--9-7-9--|
B|-----4----------------------------------------7------------------------|
G|-6^6----7-6-4----------------------------/9^9--------------------------|
D|--------------6-4------------------------------------------------------|
A|------------------6-4-\2---/4~---/-------------------------------------|
E|-----------------------------------------------------------------------|

E|----------------------------------------------21^21--19~-----21^21-----|
B|-12-11-9--11~----9-11-9\7--9-7\5~~-------------------------------------|
G|------------------------------------/11~--/----------------------------|
D|----------------------------------------------------------------4/6\4~-|
A|-----------------------------------------------------------------------|
E|-----------------------------------------------------------------------|

                                                       pm         pm
E|----------------------------------------------------------------------|
B|-4-5-/7~---7/9--7~-\5\4/5\2~------------------------------------------|
G|--------------------------------4-6/8~-----9-8-\6-----------4~--------|
D|-------------------------------------------------\4---4--4-------4--4-|
A|----------------------------------------------------------------------|
E|----------------------------------------------------------------------|

E|----------------------------------------------------------------------|
B|--------------------4-5-7-7/9\7\5\4\2~------------4-5-7---/9~-\7----5-|
G|-/6~-/8~--\6~-----4----------------------3/4~---4---------------------|
D|----------------------------------------------------------------------|
A|----------------------------------------------------------------------|
E|----------------------------------------------------------------------|

E|----------------------------------------------------------------------|
B|-4--5-----------------------------------------------------------------|
G|-------4/6~-------------8-9--8----------------------------------------|
D|----------------8-9--11--------11-9-8\6-8-9--8-6------------6---------|
A|-------------------------------------------------9--7-6-7-9-----------|
E|----------------------------------------------------------------------|

E|----------------------------------------------------------------------|
B|----------------------------------------------------------------------|
G|----------------------------------------------------------------------|
D|----------------------------------------------------------------------|
A|-9p7p6h7h9---7h6---6h7---6--------------------------------------------|
E|-----------------9---------9h7----------------------------------------|


/   slide up
\   slide down
h   hammer-on
p   pull-off
Nh  Natuaral Harmonic
~   vibrato
*   Pinched harmonic
Pm  Palm mute
comments
We did not receive enough feedback on this tab! Please rate:
print report bad tab
1 2 3 4 5
I want to post or [tab]
guest
You may want to rate the tab now too:
select rating
Please do not post tabs as comments. Select "correction" instead!