Oops, an error
Loading. Please wait.

Back To Shalla Bal Tab

3,517 views 9 this week
no commentswrite comment
1 2 3 4 5
excellent!
x 1
Autoscroll
+/-
esc
set tempo
stop
Contributor
WARNING: You are trying to view
                                    content from Ultimate-Guitar.com
                                    in an unauthorized application,
                                    which is prohibited.

                                    Please use an official Ultimate
                                    Guitar Tabs application for iPhone,
                                    iPad or Android to access legitimate
                                    chords, guitar, bass, and drum tabs
                                    from Ultimate-Guitar.com database.

                                    Type "ultimate guitar tabs" in Apple
                                    App Store's or Android Market's
                                    search to find the application.
                               BACK TO SHALLA-BAL
                           As recorded by Joe Satriani
                  (From the 1989 Album FLYING IN A BLUE DREAM)

Music by Joe Satriani
Transcribed by www.mikesguitarsite.co.uk

          C#5                  E5                   F#5                  B5
      x 4 6 6 x x          0 2 x x x x          2 4 x x x x          x 2 4 4 x x

          G5                   D5                   A5                E(type 2)
      3 x 0 0 3 3          x x 0 2 3 x          x 0 2 2 x x          x x x 0 0 0

 Intro
  Q=160
 4/4
  Gtr I
|---|--------------|--------------|--------------|--------------|
|---|--------------|--------------|--------------|--------------|
|-4-|-(4)-4------4-|-(4)-4------4-|-(4)-4------4-|-(4)-4------4-|
|-4-|-(4)-4------4-|-(4)-4------4-|-(4)-4------4-|-(4)-4------4-|
|-2-|-(2)-2------2-|-(2)-2------2-|-(2)-2------2-|-(2)-2------2-|
|---|--------------|--------------|--------------|--------------|


  Gtr II
        \7___/1____\7______________/0.5____\7_______
|--------------------------|-----------------------|
|--------------------------|-----------------------|
|--------------------------|-----------------------|
|--------------------------|-----------------------|
|--------------------------|-----------------------|
|-------0---(0)---(0)------|-(0)---0------(0)------|
|
| Gtr I
|--------------------------|-----------------------|
|--------------------------|-----------------------|
|-(4)-4------------------4-|-(4)-4---------------4-|
|-(4)-4------------------4-|-(4)-4---------------4-|
|-(2)-2------------------2-|-(2)-2---------------2-|
|--------------------------|-----------------------|


        /2____\7______________/2.5____\7_____|
|---------------------|-------------------------||
|---------------------|-------------------------||
|---------------------|-------------------------||
|---------------------|-------------------------||
|---------------------|-------------------------||
|-(0)---0----(0)------|-(0)---0------(0)----(0)-||
|
|---------------------|-------------------------||
|---------------------|-------------------------||
|-(4)-4-------------4-|-(4)-4----------------4--||
|-(4)-4-------------4-|-(4)-4----------------4--||
|-(2)-2-------------2-|-(2)-2----------------2--||
|---------------------|-------------------------||


                                        ~~~
|------------------------|-------------------------|
|------------------------|-------------------------|
|-------[9]b11---7-------|-7b7.5-------------------|
|------------------9-7-9-|-------9-7-9-(9)-----(9)s|
|------------------------|-------------------------|
|------------------------|-------------------------|
|
|        PM----------------------------------|
|------------------------|-------------------------|
|------------------------|-------------------------|
|-(4)--------------------|-------------------------|
|-(4)-4--6-----4-7-4-6-4-|-7-----4-6-4--7--4-6--4--|
|-(2)-2--2-----2-2-2-2-2-|-2-----2-2-2--2--2-2--2--|
|------------------------|-------------------------|


|-------7----------------|--------------------|
|---------10-(10)--------|-9----7-(7)-7-7-7s==|
|-----------------11-----|--------------------|
|--1/------------------9-|----9---------------|
|------------------------|--------------------|
|------------------------|--------------------|
|
|       PM-------------|      PM
|------------------------|--------------------|
|------------------------|--------------------|
|------------------------|------4-(4)-4---2---|
|-(4)-4-4--4---4---4-4-4-|------4-(4)-4---0---|
|-(2)-2-2--2---2---2-2-2-|-2--2-2-(2)-2-------|
|------------------------|-0--0---------------|


                                             ~~~
|---------------------------------|-------------------|
|--3------------------------------|-------------------|
|-----9pb11r(9)b11==(9)r(9)-7-----|-------------------|
|-----------------------------9-7-|-------------------|
|---------------------------------|-7s5-7-7-(7)---5-5-|
|---------------------------------|-------------------|
|
|     PM             PM       PM|     PM|    PM   PM
|---------------------------------|-------------------|
|------------5-----------5--3-----|-3-----5-----3-----|
|-(2)--------2-----------2--2-----|-2-----2-----2-----|
|-(0)-0--------------0------------|-----------------4-|
|-----------------------------0-0-|---0-0----0----0-2-|
|---------------------------------|-------------------|


                                      ~~~~~~~~
|-----------------------|------------------------------|
|-----------------------|------------------------------|
|-----------------------|---------------------------x\-|
|--------7b9============|=(7)r==7b9==[7]-(7)r-------x\-|
|-(5)\------------------|------------------------------|
|-----------------------|------------------------------|
|
|      PM-----------------------|               PM
|-----------------------|------------------------------|
|-----------------------|------------------------------|
|-----------------------|------------------------------|
|-(4)--4-6----4-7-4-6-4-|--7--4-6-----4--(4)--4---4----|
|-(2)--2-2----2-2-2-2-2-|--2--2-2-----2--(2)--2-2-2----|
|-----------------------|------------------------------|


                                      ~~~
|----------------------|-------------------------|
|----------------------|-------------------------|
|-------9b11---7-------|-7b7.5-------------------|
|----------------9-7-9-|-------9-7-9-(9)-----(9)s|
|----------------------|-------------------------|
|----------------------|-------------------------|
|
|       PM---------------------------------|
|----------------------|-------------------------|
|----------------------|-------------------------|
|----------------------|-------------------------|
|-(4)-4-6----4-7-4-6-4-|-7-----4-6-4--7--4-6--4--|
|-(2)-2-2----2-2-2-2-2-|-2-----2-2-2--2--2-2--2--|
|----------------------|-------------------------|


|-------7----------------|-------------------|
|---------10-(10)--------|-9----7-(7)-7--7\--|
|-----------------11-----|-------------------|
|--1/------------------9-|----9--------------|
|------------------------|-------------------|
|------------------------|-------------------|
|
|       PM-------------|      PM
|------------------------|-------------------|
|------------------------|-------------------|
|------------------------|------4-(4)-4--2---|
|-(4)-4-4--4---4---4-4-4-|------4-(4)-4--0---|
|-(2)-2-2--2---2---2-2-2-|-2--2-2-(2)-2------|
|------------------------|-0--0--------------|


                                           ~~~~~~~~~
|---------------------------------|-----------------------|
|---------------------------------|-----------------------|
|-----9pb11r(9)b11==(9)r(9)-7-----|-----------------------|
|-----------------------------9-7-|-----------------------|
|---------------------------------|-7s5-7-[7]-([7])---5-5-|
|---------------------------------|-----------------------|
|
|     PM             PM       PM|     PM|       PM    PM
|---------------------------------|-----------------------|
|------------5-----------5--3-----|-3------5--------3-----|
|-(2)--------2-----------2--2-----|-2------2--------2-----|
|-(0)-0--------------0------------|---------------------4-|
|-----------------------------0-0-|---0-0-------0-----0-2-|
|---------------------------------|-----------------------|


                                     ~~~~~~~~~
|---------------------|--------------------------------------||
|---------------------|--------------------------------------||
|---------------------|--------------------------------------||
|--------/9-----------|-(9)-[9]-[9]-[9]-([9])---([9])s(19)---||
|-(5)\----------------|--------------------------------------||
|---------------------|------------------------------------0-||
|
|      PM-----------------------|
|---------------------|--------------------------------------||
|---------------------|--------------------------------------||
|---------------------|--------------------------------------||
|-(4)--4--6-4-7-4-6-4-|--7---4---6---4---(4)--4--------------||
|-(2)--2--2-2-2-2-2-2-|--2---2---2---2---(2)--2------------2-||
|---------------------|------------------------------------0-||


                                    ~~~~~~~~~~
|--------------------------|------------------------|
|--------------------------|------------------------|
|--------------------------|------------------------|
|--------------------------|------------------------|
|---------2-4b5r(4)-2------|----------------------2-|
|-(0)-0-4-------------3b4==|=(3)---(3)---(3)r-------|
|
|       PM-------------------|      PM-|      PM|
|--------------------------|------------------------|
|--------------------------|-----5--------5---------|
|--------------------------|-----4--------4-------4-|
|--------------------------|-----2--------2-------4-|
|-(2)-2--------------------|-----2--------2-------2-|
|-(0)-0-0-0-0----0--0-0----|--0-----0--0------0-0---|


                                     ~~~~~~~~~~
|---------------------------|-------------------------|
|---------------------------|-------------------------|
|---------------------------|-------------------------|
|----------4-6b7r(6)-4------|-------------------------|
|-(2)-2-/6-------------5b6==|=(5)---(5)---(5)r--------|
|---------------------------|----------------------0--|
|
|        PM-------------------|         PM       PM
|---------------------------|-------------------------|
|---------------------------|-------------------------|
|-(4)-4---------------------|-----4--------4---4------|
|-(4)-4---------------------|-----4--------4---4------|
|-(2)-2--2-2-2----2--2-2----|--2--------2--------2-2--|
|---------------------------|----------------------0--|


                                    ~~~~~~~~~~
|--------------------------|------------------------|
|--------------------------|------------------------|
|--------------------------|------------------------|
|--------------------------|------------------------|
|---------2-4b5r(4)-2------|----------------------2-|
|-(0)-0-4-------------3b4==|=(3)---(3)---(3)r-------|
|
|       PM-------------------|      PM-|      PM|
|--------------------------|------------------------|
|--------------------------|-----5--------5---------|
|--------------------------|-----4--------4---------|
|--------------------------|-----2--------2-------4-|
|-(2)-2--------------------|-----2--------2-------2-|
|-(0)-0-0-0-0----0--0-0----|--0-----0--0------0-0---|


                                       ~~~~~~
|------------------------|-----------------------------|
|------------------------|-----------------------------|
|------------7b7.5-4-----|-----4-7b7.5-4-(4)---(4)\----|
|----------4-----------4-|-6b7----------------------2--|
|-(2)-2-/6---------------|-----------------------------|
|------------------------|-----------------------------|
|
|------------------------|-----------------------------|
|------------------------|-----------------------------|
|------------------------|-------------2-(2)-2---------|
|-(4)-4--6-4-7-----4-6-4-|-7---4-6-----2-(2)-2---------|
|-(2)-2--2-2-2-----2-2-2-|-2---2-2-----2-(2)-2------2--|
|------------------------|--------------------------0--|


                                          ~~~~~~~~
|---------------------------|-------------------------------|
|---------------------------|-------------------------------|
|----------4-6b7r(6)-4------|------------/9-(9)------(9)/---|
|-(2)-2-/6-------------5b6==|=(5)---(5)r------------------9-|
|---------------------------|-------------------------------|
|---------------------------|-------------------------------|
|
|        PM----------|
|---------------------------|-------------------------------|
|---------------------------|-------------------------------|
|---------------------------|-----------------------------4-|
|---------------------------|-----------------------------4-|
|-(2)-2----------------2----|-(2)---------2--4b5r(4)--2---2-|
|-(0)-0--0-0-0----0--0-0----|-(0)-0-/4----------------------|


                                                       ~~~~~~~~~
|-------------------------------------|---------------------------------||
|-------------------------------------|---------------------------------||
|-----------11-[13]b14r(13)-11--------|--------------/16-(16)--------9--||
|-(9)-9-/13--------------------12b13==|=(12)---(12)r--------------------||
|-------------------------------------|---------------------------------||
|-------------------------------------|---------------------------------||
|
|         PM----------------|
|-------------------------------------|---------------------------------||
|-------------------------------------|---------------------------------||
|-(4)-4-------------------------4-----|--(4)----------------------------||
|-(4)-4-------------------------4-----|--(4)-----------4---6b7r(6)-4----||
|-(2)-2---2--2---2-------2---2--2-----|--(2)-2--/6-------------------2--||
|-------------------------------------|------------------------------0--||


                                                     ~~~~~~~~~
|-----------------------------------|-------------------------------------|
|-----------12-14b15r(14)-12--------|--------------/15-(15)--------/9b11==|
|-(9)-9-/13------------------12b13==|=(12)---(12)r-----------------/9b11==|
|-----------------------------------|-------------------------------------|
|-----------------------------------|-------------------------------------|
|-----------------------------------|-------------------------------------|
|
| Gtr III
|-----------------------------------|-------------------------------------|
|-----------------------------------|------------------------------17b19==|
|-----------------------------------|-------------------------------------|
|-----------------------------------|-------------------------------------|
|-----------------------------------|-------------------------------------|
|-----------------------------------|-------------------------------------|
|
| Gtr I
|         PM--------------|
|-----------------------------------|-------------------------------------|
|-----------------------------------|-------------------------------------|
|-----------------------------------|-------------------------------------|
|-----------------------------------|-------------------------------4-----|
|-(2)-2-----------------------2-----|--(2)-----------2---4b5r(4)-2--4-----|
|-(0)-0---0--0--0------0---0--0-----|--(0)-0--/4--------------------2-----|


                                              ~~~~~~~~
|---------------------------|-------------------------------------|
|--(9)--------(9)--9--9--9r-|--9b11===(9)--9--9--(9)r-----12b14===|
|--(9)--------(9)--9--9--9r-|--9b11===(9)--9--9--(9)r-----13b15===|
|---------------------------|-------------------------------------|
|---------------------------|-------------------------------------|
|---------------------------|-------------------------------------|
|
|                                             ~~~~~~~~
|---------------------------|-----------------------------16b18===|
|-(17)-------(17)-17-17-17r-|-17b19==(17)-17-17-(17)r-------------|
|---------------------------|-------------------------------------|
|---------------------------|-------------------------------------|
|---------------------------|-------------------------------------|
|---------------------------|-------------------------------------|
|
|        PM--|        PM|              PM-|       PM----|
|---------------------------|-------------------------------------|
|---------------------------|-------------------------------------|
|---------------------------|-------------------------------------|
|--(4)-4-----------4--------|--4--------------4------------4------|
|--(4)-4-----------4--------|--4--------------4------------4------|
|--(2)-2-2-2---2------2--2--|----------2---2------2---2-2--2------|


                                              ~~~~~~~~
|---------------------------|------------------------------------|
|-(12)-------(12)-12-12-12r-|-12b14==(12)-12-12-(12)r-----15b17==|
|-(13)-------(13)-13-13-13r-|-13b15==(13)-13-13-(13)r-----16b18==|
|---------------------------|------------------------------------|
|---------------------------|------------------------------------|
|---------------------------|------------------------------------|
|
|                                             ~~~~~~~~
|-(16)-------(16)-16-16-16r-|-16b18==(16)-16-16-(16)r-----19b21==|
|---------------------------|------------------------------------|
|---------------------------|------------------------------------|
|---------------------------|------------------------------------|
|---------------------------|------------------------------------|
|---------------------------|------------------------------------|
|
|        PM--|        PM|              PM-|       PM----|
|---------------------------|------------------------------------|
|---------------------------|------------------------------------|
|---------------------------|------------------------------------|
|--(4)-4-----------4--------|--4--------------4------------4-----|
|--(4)-4-----------4--------|--4--------------4------------4-----|
|--(2)-2-2-2---2------2--2--|----------2---2------2---2-2--2-----|


                                              ~~~~~~~~
|---------------------------|-------------------------------------|
|-(15)-------(15)-15-15-15r-|-15b17==(15)-15-15-(15)r-----17b19===|
|-(16)-------(16)-16-16-16r-|-16b18==(16)-16-16-(16)r-----19b21===|
|---------------------------|-------------------------------------|
|---------------------------|-------------------------------------|
|---------------------------|-------------------------------------|
|
|                                             ~~~~~~~~
|-(19)-------(19)-19-19-19r-|-19b21==(19)-19-19-(19)r-----24b26===|
|---------------------------|-------------------------------------|
|---------------------------|-------------------------------------|
|---------------------------|-------------------------------------|
|---------------------------|-------------------------------------|
|---------------------------|-------------------------------------|
|
|        PM--|        PM|              PM-|       PM----|
|---------------------------|-------------------------------------|
|---------------------------|-------------------------------------|
|---------------------------|-------------------------------------|
|--(4)-4-----------4--------|--4--------------4------------4------|
|--(4)-4-----------4--------|--4--------------4------------4------|
|--(2)-2-2-2---2------2--2--|----------2---2------2---2-2--2------|


                                              ~~~~~~~~~
|---------------------------|-------------------------------19b21==||
|-(17)-------(17)-17-17-17r-|-17b19==(17)-17-17--(17)r-------------||
|-(19)-------(19)-19-19-19r-|-19b21==(19)-19-19--(19)r-------------||
|---------------------------|--------------------------------------||
|---------------------------|--------------------------------------||
|---------------------------|--------------------------------------||
|
|                                             ~~~~~~~~~
|-(24)-------(24)-24-24-24r-|-24b26==(24)-24-24r-(24)------(24)\---||
|---------------------------|--------------------------------------||
|---------------------------|--------------------------------------||
|---------------------------|--------------------------------------||
|---------------------------|--------------------------------------||
|---------------------------|--------------------------------------||
|
|        PM--|        PM|              PM-|
|---------------------------|--------------------------------------||
|---------------------------|--------------------------------------||
|---------------------------|----------------------4---4-4---6-----||
|--(4)-4-----------4--------|--4--------------4----4---4-4---6-----||
|--(4)-4-----------4--------|--4--------------4----2---2-2---4-----||
|--(2)-2-2-2---2------2--2--|----------2---2-----------------------||


  Gtr II
|-(19)r---19b21---19b21r==(19)b21==(19)r---|
|------------------------------------------|
|------------------------------------------|
|------------------------------------------|
|------------------------------------------|
|------------------------------------------|
|
| Gtr I
|          PM-------------------------------
|------------------------------------------|
|------------------------------------------|
|--(6)--6----------------------------------|
|--(6)--6----------------------------------|
|--(4)--4--4----4--4----4---4------------4-|
|------------------------------------------|


                    ~~~~~~~~~~~~
|-19pb21-19-19pb21-19b21==(19)r---19b21r(19)-16-|
|-----------------------------------------------|
|-----------------------------------------------|
|-----------------------------------------------|
|-----------------------------------------------|
|-----------------------------------------------|
|
|--------|          PM------------|
|-----------------------------------------------|
|-----------------------------------------------|
|------------6----------------------------------|
|------------6----------------------------------|
|--4------4--4--------------2---2--2------4-----|
|-------------------0-------0---0--0------2-----|


|-21p=16-21p16----19p16--------------------------------------|
|--------------19-------19-(19)p16----21-19-(19)p16----21p19-|
|----------------------------------18---------------18-------|
|------------------------------------------------------------|
|------------------------------------------------------------|
|------------------------------------------------------------|
|
|               PM--------------------------------------------
|------------------------------------------------------------|
|------------------------------------------------------------|
|------------------------------------------------------------|
|------------------------------------------------------------|
|-(4)-----4--------------------------------------------------|
|-(2)-----2-----2-----2------2---------2------2---------2----|


|-21p19p16----21p19p16h19h21p19p16----21p19p16----21p19p16----16-|
|----------19----------------------19----------19----------19----|
|----------------------------------------------------------------|
|----------------------------------------------------------------|
|----------------------------------------------------------------|
|----------------------------------------------------------------|
|
|----------------------------|
|----------------------------------------------------------------|
|----------------------------------------------------------------|
|-----------------------------------4--------4--------------6----|
|-----------------------------------4--------4--------------6----|
|--------------------4--------------2--------2--------------4----|
|--2--------2--------2--------0----------------------------------|


|-18--19p18p16----16-18-19p18p16----16-18p16----16h|
|--------------19----------------19----------19----|
|--------------------------------------------------|
|--------------------------------------------------|
|--------------------------------------------------|
|--------------------------------------------------|
|
|               PM----------------------------------
|--------------------------------------------------|
|--------------------------------------------------|
|-(6)-----6----------------------------------------|
|-(6)-----6----------------------------------------|
|-(4)-----4-----4-----4-----4-----4-----4-----4----|
|--------------------------------------------------|


|-18p16----16-18h19p18p16----16--------------------|
|-------19----------------19----19-17p16-19-17-16--|
|--------------------------------------------------|
|--------------------------------------------------|
|--------------------------------------------------|
|--------------------------------------------------|
|
|-------|            PM---------------|
|--------------------------------------------------|
|--------------------------------------------------|
|--------------6-----------------------------------|
|--------------6-----------------------------------|
|--4-----4-----4-----------2-----2-----2-----4-----|
|--------------------0-----0-----0-----0-----2-----|


                                               ~~~~~~~~~
|-------------------------------------|--------------------------------|
|-14--14b16==(14)b17====(14)r==(14)---|--------------------------------|
|-------------------------------------|-------[9]-([9])-15-16-16-16-16-|
|-------------------------------------|--------------------------------|
|-------------------------------------|--------------------------------|
|-----------------------------------xs|=x------------------------------|
|
|              PM-----------------------------|
|-------------------------------------|--------------------------------|
|-------------------------------------|--------------------------------|
|-------------------------------------|-------------4----4-----6-------|
|-------------------------------------|-------------4----4-----6-------|
|-(4)--4------------------------------|-----4-------2----2-----4-------|
|-(2)--2-------2------2---2--2---2--2-|-2-2-2--0-----------------------|


|--------------------------------------------------------------------------|
|--------------------------------------------------------------------------|
|-16--18-16-15-16-16-16-18-16-15-16-16-16-18-16-15-16-16-16-18-16-15-16-16-|
|--------------------------------------------------------------------------|
|--------------------------------------------------------------------------|
|--------------------------------------------------------------------------|
|
|                     PM----------------------------------------------------
|--------------------------------------------------------------------------|
|--------------------------------------------------------------------------|
|-(6)--------6-------------------------------------------------------------|
|-(6)--------6-------------------------------------------------------------|
|-(4)--------4--------4--------4--------4--------4--------4--------4-------|
|--------------------------------------------------------------------------|


|--------------------------------------------------------------------------|
|--------------------------------------------------------------------------|
|-16-18-16-15-16-16-16-18-16-15-16-16-16-18-16-15-16-16-16-18-16-15-15-15S=|
|--------------------------------------------------------------------------|
|--------------------------------------------------------------------------|
|--------------------------------------------------------------------------|
|
|----------|                  PM------------------------|
|--------------------------------------------------------------------------|
|--------------------------------------------------------------------------|
|--------------------6-----------------------------------------------------|
|--------------------6-----------------------------------------------------|
|--4--------4--------4-----------------2--------2--------2--------4--------|
|-----------------------------0--------0--------0--------0--------2--------|


|--------------------------------------------------------------------|
|--------------------------------------------------------------------|
|-13--13-13-15-15S11-11-11S13-13-13-13-11-11-11-13-11S9-9-11-9S8-8-9S|
|--------------------------------------------------------------------|
|--------------------------------------------------------------------|
|--------------------------------------------------------------------|
|
|                     PM----------------------------------------------
|--------------------------------------------------------------------|
|--------------------------------------------------------------------|
|--------------------------------------------------------------------|
|--------------------------------------------------------------------|
|-(4)--------4-------------------------------------------------------|
|-(2)--------2--------2--------2--------2--------2------2------2-----|


                   ~~~~~~~~~
|------------------------------------12b14===|
|----------------------------------x---------|
|-6-6-6-8-8S4-(4)-[4]-([4])-([4])/-----------|
|--------------------------------------------|
|--------------------------------------------|
|--------------------------------------------|
|
|-----------------|
|--------------------------------------------|
|--------------------------------------------|
|-----------------------4-----4-------6------|
|-----------------------4-----4-------6------|
|--------------4--------2-----2-------4------|
|-2-----2------2---0-------------------------|


|-(12)r====(12)-9-----------------------|--------------------------------------|
|-----------------12p==9----------------|--------------------------------------|
|------------------------11b13r(11)p==9-|----11p==9----9-----------------------|
|---------------------------------------|-11--------11-----9-11p9------9-------|
|---------------------------------------|---------------------------11---9p==7-|
|---------------------------------------|--------------------------------------|
|
|        PM-------------------------------------|        PM------------|
|---------------------------------------|--------------------------------------|
|---------------------------------------|--------------------------------------|
|--(6)-6--------------------------------|------------6-------------------------|
|--(6)-6--------------------------------|------------6-------------------------|
|--(4)-4-4---4--4----4----4---------4---|--4----4----4--------2---2----2---4---|
|---------------------------------------|----------------0----0---0----0---2---|


|----------------------------------------|
|----------------------------------------|
|----------------------------------------|
|----------------------------------------|
|--9--9p==7-9-9p==7-9-9p==7-9b11r(9)-9-7-|
|----------------------------------------|
|
|           PM-----------------------|
|----------------------------------------|
|----------------------------------------|
|----------------------------------------|
|----------------------------------------|
|-(4)---4--------------------------------|
|-(2)---2---2---2---2---2---2--------2---|


|--------------------------------------||
|---------------------------------0-0--||
|--------------------------------------||
|--------------------------------------||
|-[7]b9-[7]b9r([7])b9==([7])rs=4-------||
|--------------------------------------||
|
|        PM---|
|--------------------------------------||
|--------------------------------------||
|--------------------------------------||
|--------------------------------------||
|--4---------------------4----(4)-4----||
|--2-----2------2--------2----(2)-2----||


  G5
  Gtr I
   |
   /

|-15p10-15p10----15p10----15p10-15p10----15p10----|
|-------------12-------12-------------12-------12-|
|-------------------------------------------------|
|-------------------------------------------------|
|-------------------------------------------------|
|-------------------------------------------------|


  D5
   |
   /

|-14p10-14p10----14p10----14p10-14p10----------|
|-------------10-------10-------------10-15p12-|
|----------------------------------------------|
|----------------------------------------------|
|----------------------------------------------|
|----------------------------------------------|


  A5
   |
   /

|-17p12-17p12----17p12----17p12-17p12----17p12----|
|-------------14-------14-------------14-------12-|
|-------------------------------------------------|
|-------------------------------------------------|
|-------------------------------------------------|
|-------------------------------------------------|


  E(type 2)
   |
   /

|-16p12-16p12----16p12----16p12-16p12----16-19-|
|-------------12-------12-------------12-------|
|----------------------------------------------|
|----------------------------------------------|
|----------------------------------------------|
|----------------------------------------------|


  G5
   |
   /

|-19p15-19p15----19p15----19p15-19p15----19p15s14-|
|-------------16-------15-------------15----------|
|-------------------------------------------------|
|-------------------------------------------------|
|-------------------------------------------------|
|-------------------------------------------------|


  D5
   |
   /

|-17p14-17p14----17p14----17p14-17p14-------17p14p0-|
|-------------15-------15-------------15h17---------|
|---------------------------------------------------|
|---------------------------------------------------|
|---------------------------------------------------|
|---------------------------------------------------|


|-19p0-0-17p0-0-16-16p=0--14-14p0-12-12p0-10-|
|--------------------------------------------|
|--------------------------------------------|
|--------------------------------------------|
|--------------------------------------------|
|--------------------------------------------|
|
| Gtr I
|--------------------------------------------|
|--------------------------------------------|
|--------------------------------------------|
|--------------------------------------------|
|--2-------------2----(2)----------2---------|
|--0-------------0----(0)----------0---------|


|-10p=0-9h10p0-7h9p7p0-5-5h7p5s4h5p4s2-2-4p2p0-|
|----------------------------------------------|
|----------------------------------------------|
|----------------------------------------------|
|----------------------------------------------|
|----------------------------------------------|
|
|----------------------------------------------|
|----------------------------------------------|
|----------------------------------------------|
|----------------------------------------------|
|-(2)--------------------------------5---4-----|
|-(0)---0----2-----0-----3-----0---------------|


                                                          \7
|-4p2h4-2-4-0----------4p=2p0-------------------|-----------------|
|-------------0h3p2p0---------2h3p2p0--3p=2p0-0-|-(0)----(0)------|
|-----------------------------------------------|-----------------|
|-----------------------------------------------|-----------------|
|-----------------------------------------------|-----------------|
|-----------------------------------------------|-----------------|
|
|--------------------------------------0--------|-(0)-------------|
|--------------------------------------0--------|-(0)-------------|
|--------------------------------------0--------|-(0)-------------|
|-----------------------------------------------|---------x\------|
|-2-------------2-----(2)-------------(2)-------|-(2)-----x\------|
|-0-------------0-----(0)-------------(0)-------|-(0)-----x\--x\--|


                                    ~~~~~                   ~~~~~~~~
|--19--------|-(19)--------|------(19)-----------|---------------------------||
|------------|-------------|------------------19s|==18-----19-(19)--(19)\----||
|-/10--------|-(10)--------|------(10)-----------|---------------------------||
|------------|-------------|---------------------|---------------------------||
|------------|-------------|---------------------|---------------------------||
|------------|-------------|---------------------|---------------------------||
|
| Gtr III
|                             \7____/2__________________________\2
|------------|-------------|---------------------|---------------------------||
|------------|-------------|---------------------|---------------------------||
|------------|-------------|---------------------|---------------------------||
|------------|-------------|---------------------|---------------------------||
|------------|-------------|-<5>--(<5>)----------|-(<5>)------(<5>)----------||
|------------|-------------|---------------------|---------------------------||
|
| Gtr I
|------------|-------------|---------------------|---------------------------||
|------------|-------------|---------------------|---------------------------||
|------------|-------------|---------------------|---------------------------||
|------------|-------------|---------------------|-------------------------4-||
|---2--------|--(2)--------|-------(2)-----------|--(2)--------------------2-||
|------------|-------------|---------------------|---------------------------||


                                      ~~~
|----------------------|-------------------------|
|----------------------|-------------------------|
|-------9b11---7-------|-7b7.5-------------------|
|----------------9-7-9-|-------9-7-9-(9)-----(9)s|
|----------------------|-------------------------|
|----------------------|-------------------------|
|
| Gtr I
|       PM---------------------------------|
|----------------------|-------------------------|
|----------------------|-------------------------|
|----------------------|-------------------------|
|-(4)-4-6----4-7-4-6-4-|-7-----4-6-4--7--4-6--4--|
|-(2)-2-2----2-2-2-2-2-|-2-----2-2-2--2--2-2--2--|
|----------------------|-------------------------|


|-------7----------------|--------------------|
|---------10-(10)--------|-9----7-(7)---------|
|-----------------11-----|--------------------|
|--1/------------------9-|----9-------9-9-9s==|
|------------------------|--------------------|
|------------------------|--------------------|
|
|       PM-------------|      PM
|------------------------|--------------------|
|------------------------|--------------------|
|------------------------|------4-(4)-4---2---|
|-(4)-4-4--4---4---4-4-4-|------4-(4)-4---0---|
|-(2)-2-2--2---2---2-2-2-|-2--2-2-(2)-2-------|
|------------------------|-0--0---------------|


                                            ~~~
|--------------------------------|-------------------|
|--------------------------------|-------------------|
|-----9b11r(9)b11==(9)r(9)-7-----|-------------------|
|--7-------------------------9-7-|-------------------|
|--------------------------------|-7s5-7-7-(7)---7-5-|
|--------------------------------|-------------------|
|
|     PM            PM       PM|     PM|    PM   PM
|--------------------------------|-------------------|
|-----------5-----------5--3-----|-3-----5-----3-----|
|-(2)-------2-----------2--2-----|-2-----2-----2-----|
|-(0)-0-------------0------------|-----------------4-|
|----------------------------0-0-|---0-0----0----0-2-|
|--------------------------------|-------------------|


               ~~~                     ~~~~~~~~~~~~~~~~~
|-----------------------|---------------------------------------|
|-----------------------|---------------------------------------|
|-----------------------|---------------------------------------|
|--------/9---(9)-------|-(9)-[9]-[9]-[9]-([9])---([9])-(9)s21s=|
|-(5)\------------------|---------------------------------------|
|-----------------------|---------------------------------------|
|
|      PM-------------------------|                 PM
|-----------------------|---------------------------------------|
|-----------------------|---------------------------------------|
|-----------------------|---------------------------------------|
|-(4)--4--6-4--7--4-6-4-|--7---4---6---4---(4)--4------------4--|
|-(2)--2--2-2--2--2-2-2-|--2---2---2---2---(2)--2---2--------2--|
|-----------------------|---------------------------------------|


                                        ~~~
|----------------------|---------------------------|
|----------------------|---------------------------|
|-------9b11---7-------|-[7]b7.5-------------------|
|--9-------------9-7-9-|---------9-7-9-(9)-----(9)s|
|----------------------|---------------------------|
|----------------------|---------------------------|
|
|       PM-----------------------------------|
|----------------------|---------------------------|
|----------------------|---------------------------|
|----------------------|---------------------------|
|-(4)-4-6----4-7-4-6-4-|--7------4-6-4--7--4-6--4--|
|-(2)-2-2----2-2-2-2-2-|--2------2-2-2--2--2-2--2--|
|----------------------|---------------------------|


|-------7----------------|-------------------|
|---------10-(10)--------|-9----7-(7)--------|
|-----------------11-----|-------------------|
|--1/------------------9-|----9----------9s==|
|------------------------|-------------------|
|------------------------|-------------------|
|
|       PM-------------|      PM
|------------------------|-------------------|
|------------------------|-------------------|
|------------------------|------4-(4)-4--2---|
|-(4)-4-4--4---4---4-4-4-|------4-(4)-4--0---|
|-(2)-2-2--2---2---2-2-2-|-2--2-2-(2)-2------|
|------------------------|-0--0--------------|


                                             ~~~
|---------------------------------|-------------------|
|---------------------------------|-------------------|
|-----9pb11r(9)b11==(9)r(9)-7-----|-------------------|
|--7--------------------------9-7-|-------------------|
|---------------------------------|-7s5-7-7-(7)---7-5-|
|---------------------------------|-------------------|
|
|     PM             PM       PM|     PM|    PM   PM
|---------------------------------|-------------------|
|------------5-----------5--3-----|-3-----5-----3-----|
|-(2)--------2-----------2--2-----|-2-----2-----2-----|
|-(0)-0--------------0------------|-----------------4-|
|-----------------------------0-0-|---0-0----0----0-2-|
|---------------------------------|-------------------|


                                            ~~~~~~~~~~~
|-----------------------------|------------------------------||
|-----------------------------|------------------------------||
|-----------------------------|------------------------------||
|--------[7]b9==(7)-(7)-------|-(7)r---[7]-[7]b9==(7)r-------||
|-(5)\------------------------|------------------------------||
|-----------------------------|---------------------------0--||
|
|      PM------------------------------|
|-----------------------------|------------------------------||
|-----------------------------|------------------------------||
|-----------------------------|------------------------------||
|-(4)--4--6------4---7--4-6-4-|--7---4--6---4-----(4)--4-----||
|-(2)--2--2------2---2--2-2-2-|--2---2--2---2-----(2)--2--2--||
|-----------------------------|---------------------------0--||


                                    ~~~~~~~~~~
|--------------------------|------------------------|
|--------------------------|------------------------|
|--------------------------|------------------------|
|--------------------------|------------------------|
|---------2-4b5r(4)-2------|----------------------2-|
|-(0)-0-4-------------3b4==|=(3)---(3)---(3)r-------|
|
|       PM-------------------|      PM-|      PM|
|--------------------------|------------------------|
|--------------------------|-----5--------5---------|
|--------------------------|-----4--------4-------4-|
|--------------------------|-----2--------2-------4-|
|-(2)-2--------------------|-----2--------2-------2-|
|-(0)-0-0-0-0----0--0-0----|--0-----0--0------0-0---|


                                     ~~~
|---------------------------|--------------------------|
|---------------------------|--------------------------|
|---------------------------|--------------------------|
|----------4-6b7r(6)-4------|--------------------------|
|-(2)-2-/6-------------5b6==|=(5)---(5)-------(5)r\----|
|---------------------------|-----------------------0--|
|
|        PM-------------------|         PM     PM
|---------------------------|--------------------------|
|---------------------------|--------------------------|
|-(4)-4---------------------|-----4-------4-4----------|
|-(4)-4---------------------|-----4-------4-4----------|
|-(2)-2--2-2-2----2--2-2----|--2--------2------2----2--|
|---------------------------|-----------------------0--|


                                    ~~~~~~~~~~
|--------------------------|------------------------|
|--------------------------|------------------------|
|--------------------------|------------------------|
|--------------------------|------------------------|
|---------2-4b5r(4)-2------|----------------------2-|
|-(0)-0-4-------------3b4==|=(3)---(3)---(3)r-------|
|
|       PM-------------------|      PM-|      PM|
|--------------------------|------------------------|
|--------------------------|-----5--------5---------|
|--------------------------|-----4--------4---------|
|--------------------------|-----2--------2-------4-|
|-(2)-2--------------------|-----2--------2-------2-|
|-(0)-0-0-0-0----0--0-0----|--0-----0--0------0-0---|


                                       ~~~~~~
|------------------------|---------------------------|
|------------------------|---------------------------|
|------------7b7.5-4-----|-----4-7b7.5-4-(4)-4s14----|
|----------4-----------4-|-6b7---------------------2-|
|-(2)-2-/6---------------|---------------------------|
|------------------------|---------------------------|
|
|------------------------|---------------------------|
|------------------------|---------------------------|
|------------------------|-------------2-(2)-2-------|
|-(4)-4--6-4-7-----4-6-4-|-7---4-6-----2-(2)-2-------|
|-(2)-2--2-2-2-----2-2-2-|-2---2-2-----2-(2)-2-----2-|
|------------------------|-------------------------0-|


                                          ~~~~~~~~
|---------------------------|--------------------------10b12==|
|---------------------------|------------------------x--------|
|----------4-6b7r(6)-4------|------------/9-(9)---------------|
|-(2)-2-/6-------------5b6==|=(5)---(5)r----------------------|
|---------------------------|---------------------------------|
|---------------------------|---------------------------------|
|
|        PM----------|
|---------------------------|---------------------------------|
|---------------------------|---------------------------------|
|---------------------------|---------------------------4-----|
|---------------------------|---------------------------4-----|
|-(2)-2----------------2----|-(2)---------2--4b5r(4)-2--2-----|
|-(0)-0--0-0-0----0--0-0----|-(0)-0-/4------------------------|


                                 ~~~~~~~~~~~~~~~~
|-(10)r---10b11-7-------------|---------------------------|
|-----------------10-7--------|---------------------------|
|----------------------9b11-0-|--7---------(7)--(7)/------|
|-----------------------------|------------------------2--|
|-----------------------------|---------------------------|
|-----------------------------|---------------------------|
|
|          PM----------|
|-----------------------------|---------------------------|
|-----------------------------|---------------------------|
|--(4)--4-------------------4-|-(4)-----------------------|
|--(4)--4-------------------4-|-(4)------4--6b7r(6)--4----|
|--(2)--2--2----2--2-2-2----2-|-(2)-2-/6---------------2--|
|-----------------------------|------------------------0--|


                                     ~~~~~~~~~~~
|---------------------------|-----------------------------|
|---------------------------|--------------------------10-|
|----------4-6b8r(6)-4------|--------------------------11-|
|-(2)-2-/6-------------5b6==|=(5)---(5)---(5)--(5)r/------|
|---------------------------|-----------------------------|
|---------------------------|-----------------------------|
|
|        PM----------|
|---------------------------|-----------------------------|
|---------------------------|-----------------------------|
|---------------------------|-----------------------------|
|---------------------------|---------------------------4-|
|-(2)-2----------------2----|-(2)-------2--4b5r(4)---2--2-|
|-(0)-0--0-0-0----0--0-0----|-(0)-0-/4--------------------|


                             ~
|--------------------|--------------7-7-7--||
|-10--10-----7---9-7-|-9-7-----------------||
|-11--11-9---7---9-7-|-9-7-----------------||
|--------9-9---------|-------9-(9)/--------||
|--------------------|---------------------||
|--------------------|---------------------||
|
|--------------------|---------------------||
|--------------------|---------------------||
|--------------------|-------2-(2)--2------||
|-(4)--4-6-4-7-4-6-4-|-7-4-6-2-(2)--2------||
|-(2)--2-2-2-2-2-2-2-|-2-2-2-2-(2)--2---2--||
|--------------------|------------------0--||


|--4p=0---4p0---4p0---4p0---4p0---4p|
|-------3-----3-----3-----3-----3---|
|-----------------------------------|
|-----------------------------------|
|-----------------------------------|
|-----------------------------------|
|
|           PM--------------|
|-----------------------------------|
|-----------------------------------|
|-----------------------------------|
|-----------------------------------|
|-(2)---2-----------------------2---|
|-(0)---0---0---0---0---0---0---0---|


|--2p=0---4p2p0----4p2p0---4p==2p0-----4p2p0---5p4p0---|
|-------3--------3-------3----------3--------3---------|
|------------------------------------------------------|
|------------------------------------------------------|
|------------------------------------------------------|
|------------------------------------------------------|
|
|------------------------------------------------------|
|------------------------------------------------------|
|----------------------------------------------4-------|
|----------------------------------------------4-------|
|-(2)------------------2---4b5r====(4)---2-----2-------|
|-(0)-----0-----/4-------------------------------------|


|-----5-4p0-----5p4p0---5p4p0---5p4p0---5p4p0-----|
|--4--------4p0-------4-------4-------4-------[4]h|
|-------------------------------------------------|
|-------------------------------------------------|
|-------------------------------------------------|
|-------------------------------------------------|
|
|               PM--------------------|
|-------------------------------------------------|
|-------------------------------------------------|
|-(4)---4---------------------------------4-------|
|-(4)---4---------------------------------4-------|
|-(2)---2-------2-----2---2-----2-----2---2-------|
|-------------------------------------------------|


|-------------2h5-(5)p4p0---5p4---5p==4p=0----5p0-10p9p7--|
|-[5]p[4]-5p0-------------4-----4-----------4-------------|
|---------------------------------------------------------|
|---------------------------------------------------------|
|---------------------------------------------------------|
|---------------------------------------------------------|
|
|---------------------------------------------------------|
|---------------------------------------------------------|
|-(4)-----------------------------------------------------|
|-(4)-----------------------4-----6b7r==(6)---4-----------|
|-(2)-------2-----/6-------------------------------2------|
|--------------------------------------------------0------|


|-----10p9p7---10p9p7---10p9p7---10p9p7---10p9p7---|
|--9---------9--------9--------9--------9--------9-|
|--------------------------------------------------|
|--------------------------------------------------|
|--------------------------------------------------|
|--------------------------------------------------|
|
|               PM----------------------|
|--------------------------------------------------|
|--------------------------------------------------|
|--------------------------------------------------|
|--------------------------------------------------|
|-(2)----2-----------------------------------2-----|
|-(0)----0------0-----0----0------0-----0----0-----|


|-10p=9p7---10p=9p7---10p9p7-----10p=9p=7---11s12---11p==|
|---------9---------9--------9------------9--------------|
|--------------------------------------------------------|
|--------------------------------------------------------|
|--------------------------------------------------------|
|--------------------------------------------------------|
|
|--------------------------------------------------------|
|--------------------------------------------------------|
|--------------------------------------------------------|
|-------------------------------------------------4------|
|-(2)------------------2-----4b5r===(4)---------2-2------|
|-(0)-----0----/4----------------------------------------|


|--7-----11p7----11p10p==7----11p10p7----11p7----11p10p7-|
|-----10------10-----------10---------10------10---------|
|--------------------------------------------------------|
|--------------------------------------------------------|
|--------------------------------------------------------|
|--------------------------------------------------------|
|
|--------------------------------------------------------|
|--------------------------------------------------------|
|--------------------------------------------------------|
|-(4)-----4----6-------4-------7-------4----6-----4------|
|-(2)-----2----2-------2-------2-------2----2-----2------|
|--------------------------------------------------------|


                             PM
|-7-11p10p7----11p10p7-7--9----------/16--|
|-----------10-----------10----------/15--|
|------------------------------------/16--|
|---------------------------------x\------|
|-----------------------------------------|
|---------------------------17\-----------|
|
|-----------------------------------------|
|-----------------------------------------|
|----------------------2----(2)-2---------|
|-7-------4-----6------2----(2)-2---------|
|-2-------2-----2------2----(2)-2------2--|
|--------------------------------------0--|


|-16--16-16-/16-16-16-16-16-/16-16-16-16-|
|-15--15-15-/15--------------------------|
|-16--16-16-/16-16-16-16-16-/16-16-16-16-|
|----------------------------------------|
|----------------------------------------|
|----------------------------------------|
|
|             PM----------------|
|----------------------------------------|
|----------------------------------------|
|----------------------------------------|
|----------------------------------------|
|-(2)--2-------------------------------2-|
|-(0)--0------0--0-----0------0--0-----0-|


|------16-16-16-16-----16---16-16--16-----16-16-|
|-/15--15-15-15-15-/15-----------------15-------|
|-/16--------------/16-16---16-16--16-/16-16-16-|
|-----------------------------------------------|
|-----------------------------------------------|
|-----------------------------------------------|
|
|-----------------------------------------------|
|-----------------------------------------------|
|------------------------------------------4----|
|------------------------------------------4----|
|--(2)---------------2--4b5r===(4)------2--2----|
|--(0)--0----/4---------------------------------|


|-16--16-/17-17-17-17-17-/17-17-17-17-/17-|
|-----------------------------------------|
|-16--16-/16-16-16-16-16-/16-16-16-16-/16-|
|-----------------------------------------|
|-----------------------------------------|
|-----------------------------------------|
|
|             PM-------------------|
|-----------------------------------------|
|-----------------------------------------|
|-(4)------4----------------------------4-|
|-(4)------4----------------------------4-|
|-(2)------2--2-----2------2--2-----2---2-|
|-----------------------------------------|


|-17--17-17-17-/17-17-17-17---17-/17--17-17-17-17-||
|-------------------------------------------------||
|-16--16-16-16-/16-16-16-16---16-/16--16-16-16-16-||
|-------------------------------------------------||
|-------------------------------------------------||
|-------------------------------------------------||
|
|-------------------------------------------------||
|-------------------------------------------------||
|-(4)---------------------------------------------||
|-(4)---------------4-----6b7r====(6)--4----------||
|-(2)-----2-----/6---------------------------2----||
|--------------------------------------------0----||


    TP     TP    TP    TP
|-/16----\14---\12---\10---|--9--9--8-7-(7)---------------|
|--------------------------|------------------------9b11==|
|-/16----\14---\13---\11---|--9--9--8-7--7s===x\----9b11==|
|--------------------------|------------------------------|
|--------------------------|------------------------------|
|--------------------------|------------------------------|
|
| Gtr III
|--------------------------|------------------------------|
|--------------------------|-----------------------17b19==|
|--------------------------|------------------------------|
|--------------------------|------------------------------|
|--------------------------|------------------------------|
|--------------------------|------------------------------|
|
| Gtr I
|          PM--------|
|--------------------------|------------------------------|
|--------------------------|------------------------------|
|--------------------------|------------------------------|
|--------------------------|------------------------4-----|
|--(2)-2-----------------2-|-(2)------2--4b5r(4)-2--4-----|
|--(0)-0---0-0---0-0---0-0-|-(0)-0-/4---------------2-----|


                                              ~~~~~~~~
|---------------------------|-------------------------------------|
|--(9)--------(9)--9--9--9r-|--9b11===(9)--9--9--(9)r-----12b14===|
|--(9)--------(9)--9--9--9r-|--9b11===(9)--9--9--(9)r-----13b15===|
|---------------------------|-------------------------------------|
|---------------------------|-------------------------------------|
|---------------------------|-------------------------------------|
|
|                                             ~~~~~~~~
|---------------------------|-----------------------------16b18===|
|-(17)-------(17)-17-17-17r-|-17b19==(17)-17-17-(17)r-------------|
|---------------------------|-------------------------------------|
|---------------------------|-------------------------------------|
|---------------------------|-------------------------------------|
|---------------------------|-------------------------------------|
|
|        PM--|        PM|              PM-|       PM----|
|---------------------------|-------------------------------------|
|---------------------------|-------------------------------------|
|---------------------------|-------------------------------------|
|--(4)-4-----------4--------|--4--------------4------------4------|
|--(4)-4-----------4--------|--4--------------4------------4------|
|--(2)-2-2-2---2------2--2--|----------2---2------2---2-2--2------|


                                              ~~~~~~~~
|---------------------------|------------------------------------|
|-(12)-------(12)-12-12-12r-|-12b14==(12)-12-12-(12)r-----15b17==|
|-(13)-------(13)-13-13-13r-|-13b15==(13)-13-13-(13)r-----16b18==|
|---------------------------|------------------------------------|
|---------------------------|------------------------------------|
|---------------------------|------------------------------------|
|
|                                             ~~~~~~~~
|-(16)-------(16)-16-16-16r-|-16b18==(16)-16-16-(16)r-----19b21==|
|---------------------------|------------------------------------|
|---------------------------|------------------------------------|
|---------------------------|------------------------------------|
|---------------------------|------------------------------------|
|---------------------------|------------------------------------|
|
|        PM--|        PM|              PM-|       PM----|
|---------------------------|------------------------------------|
|---------------------------|------------------------------------|
|---------------------------|------------------------------------|
|--(4)-4-----------4--------|--4--------------4------------4-----|
|--(4)-4-----------4--------|--4--------------4------------4-----|
|--(2)-2-2-2---2------2--2--|----------2---2------2---2-2--2-----|


                                              ~~~~~~~~
|---------------------------|-------------------------------------|
|-(15)-------(15)-15-15-15r-|-15b17==(15)-15-15-(15)r-----17b19===|
|-(16)-------(16)-16-16-16r-|-16b18==(16)-16-16-(16)r-----19b21===|
|---------------------------|-------------------------------------|
|---------------------------|-------------------------------------|
|---------------------------|-------------------------------------|
|
|                                             ~~~~~~~~
|-(19)-------(19)-19-19-19r-|-19b21==(19)-19-19-(19)r-----24b26===|
|---------------------------|-------------------------------------|
|---------------------------|-------------------------------------|
|---------------------------|-------------------------------------|
|---------------------------|-------------------------------------|
|---------------------------|-------------------------------------|
|
|        PM--|        PM|              PM-|       PM----|
|---------------------------|-------------------------------------|
|---------------------------|-------------------------------------|
|---------------------------|-------------------------------------|
|--(4)-4-----------4--------|--4--------------4------------4------|
|--(4)-4-----------4--------|--4--------------4------------4------|
|--(2)-2-2-2---2------2--2--|----------2---2------2---2-2--2------|


                                              ~~~~~~~~~~~~~~~~~~~
|---------------------------|------------------------------------|
|-(17)-------(17)-17-17-17r-|-17b19==(17)-17-17--(17)-----(17)r\-|
|-(19)-------(19)-19-19-19r-|-19b21==(19)-19-19--(19)-----(19)r\-|
|---------------------------|------------------------------------|
|---------------------------|------------------------------------|
|---------------------------|------------------------------------|
|
|                                             ~~~~~~~~
|-(24)-------(24)-24-24-24r-|-24b26==(24)-24-24r-(24)-----(24)\--|
|---------------------------|------------------------------------|
|---------------------------|------------------------------------|
|---------------------------|------------------------------------|
|---------------------------|------------------------------------|
|---------------------------|------------------------------------|
|
|        PM--|        PM|              PM-|        PM-----|
|---------------------------|------------------------------------|
|---------------------------|------------------------------------|
|---------------------------|------------------------------------|
|--(4)-4-----------4--------|--4--------------4------------------|
|--(4)-4-----------4--------|--4--------------4----4--4-4---4----|
|--(2)-2-2-2---2------2--2--|----------2---2-------2--2-2---2----|


|----------------------------------|-------17-19-(19)\-------7-|--7\-------------*|
|--17b19==(17)r(17)p15-17-15-------|-15-17---------------------|-----------------*|
|---9b11===(9)r=(9)p=7--9--7-14-16-|--7--9--------------9b11---|-----------------*|
|-----------------------------7--9-|--------7--9--(9)\---------|-----------------*|
|----------------------------------|---------------------------|-----------------*|
|----------------------------------|---------------------------|-----------------*|
|
|----------------------------------|---------------------------|-----------------*|
|----------------------------------|---------------------------|-----------------*|
|----------------------------------|---------------------------|-----------------*|
|----------------------------------|---------------------------|-----------------*|
|----------------------------------|---------------------------|-----------------*|
|----------------------------------|---------------------------|-----------------*|
|
|----------------------------------|---------------------------|-----------------*|
|----------------------------------|---------------------------|-----10-12\------*|
|----------------------------------|--------------------9------|-(9)-------------*|
|----------------------------------|---------------------------|-----------------*|
|---7b9====(7)r=(7)p=5--7--5-------|--5--7---------------------|-----------------*|
|-----------------------------5--7-|--------5--7---------------|-----------------*|



***************************************************************************************
* Generated using Power Tab Editor by Brad Larsen - http://powertab.guitarnetwork.org *
***************************************************************************************
comments
We did not receive enough feedback on this tab! Please rate:
print report bad tab
1 2 3 4 5
I want to post or [tab]
guest
You may want to rate the tab now too:
select rating
Please do not post tabs as comments. Select "correction" instead!