Oops, an error
Loading. Please wait.

Big Bad Moon Tab

ver1
ver1

Solo

Whole song

Interactive

More versions @911Tabs.com
9,385 views 6 this week
no commentswrite comment
1 2 3 4 5
excellent!
x 5
Autoscroll
+/-
esc
set tempo
stop
Contributor
NEW! There's an official Ultimate Guitar app which is ideal
for learning songs when you're away from computer. Get the app
WARNING: You are trying to view
                                    content from Ultimate-Guitar.com
                                    in an unauthorized application,
                                    which is prohibited.

                                    Please use an official Ultimate
                                    Guitar Tabs application for iPhone,
                                    iPad or Android to access legitimate
                                    chords, guitar, bass, and drum tabs
                                    from Ultimate-Guitar.com database.

                                    Type "ultimate guitar tabs" in Apple
                                    App Store's or Android Market's
                                    search to find the application.
                                  BIG BAD MOON
                           As recorded by Joe Satriani
                  (From the 1989 Album FLYING IN A BLUE DREAM)

Words and Music by Joe Satriani
Transcribed by www.mikesguitarsite.co.uk

          E5               E5(type 2)               A5                   C5
      0 2 2 4 5 0          0 2 2 x x x          x 0 2 2 x x          x 3 5 5 x x

          D5                  Gsus2
      x 5 7 7 x x          3 x 0 2 3 x

 Intro
  Q=144
 4/4
  Gtr I                                           Gtr II
|-8---6-(6)-----|---------------|-----------------|-0----||
|-5---7-(7)--8--|-(8)-7---------|-----------------|-0----||
|------------5--|-(5)-6---8---5-|-(5)-------------|------||
|---------------|---------6---7-|-(7)--8--(8)-5---|------||
|---------------|---------------|------6--(6)-7---|------||
|---------------|---------------|-----------------|-0----||


|-------------------------|-------------------------||
|-------------------------|-------------------------||
|-------------------------|-------------------------||
|-x-x-x-x-x-x-x-x-x-x-x-x-|-x-x-x-x-x-x-x-x-x-x-x-x-||
|-x-x-x-x-x-x-x-x-x-x-x-x-|-x-x-x-x-x-x-x-x-x-x-x-x-||
|-------------------------|-------------------------||


  (8=s8)
  Gtrs II, III
                PM          PM                        PM          PM
|-------0-(0)-0---0-|-(0)-0-----------|-------0-(0)-0---0-|-(0)-0----------0-|
|-------0-(0)-0---0-|-(0)-0---0-3-----|-------0-(0)-0---0-|-(0)-0---0-3----0-|
|-------------------|---------0-4--6--|-------------------|---------0-4--6---|
|-------2-(2)-2---2-|-(2)-2-----5--7--|---2---2-(2)-2---2-|-(2)-2-----5--7---|
|-----2---------2---|-------2---5--7--|-2---2---------2---|-------2---5--7---|
|-0-0-0---------0---|-------0---3--5--|-0---0---------0---|-------0---3--5---|


                PM          PM                         PM          PM
|-------0-(0)-0---0-|-(0)-0----------x-|-------0-(0)-0---0-|-(0)-0----------x-||
|-------0-(0)-0---0-|-(0)-0---0-3----x-|-------0-(0)-0---0-|-(0)-0---0-3----x-||
|-------------------|---------0-4--6---|-------------------|---------0-4--6---||
|---2---2-(2)-2---2-|-(2)-2-----5--7---|---2---2-(2)-2---2-|-(2)-2-----5--7---||
|-2---2---------2---|-------2---5--7---|-2---2---------2---|-------2---5--7---||
|-0---0---------0---|-------0---3--5---|-0---0---------0---|-------0---3--5---||


   Verse 1
        PM        PM          PM
||--------------------|------------------|
||o-------------------|------------------|
||--------------------|---------x-0--2p0-|
||----2---2-(2)-2---2-|-(2)-2---x-0--2p0-|
||o-2---2-2-(2)-2-2-2-|-(2)---2------0---|
||--0---0-0-(0)---0---|-------0---3------|


      PM        PM          PM
                                         4x
|-------------------|--------------------||
|-------------------|-------------------o||
|-------------------|---------x-0--2p0---||
|---2---2-(2)-2---2-|-(2)-2---x-0--2p0---||
|-2---2-2-(2)-2-2-2-|-(2)---2------0----o||
|-0---0-0-(0)---0---|-------0---3--------||


 Chorus
  Gtr II
|-0-0---(0)----|------------|-------------------|----------------12-||
|-0-0---(0)----|------------|-------------------|-------------------||
|--------------|------------|-------------------|----x\-------------||
|--------------|------------|-------------------|----x\-------14----||
|--------------|------------|-------------------|--------x\---------||
|--------------|------------|-------------------|--------x\-0-------||
|
| Gtr III
|                                       \0.5/
|--------------|------------|-------------------|-------------------||
|--------------|------------|-------------------|-------------------||
|--------------|------------|-----------------x-|-xs=x\-------------||
|-2------------|-(2)--------|-(2)------(2)----x-|-xs=x\--x\---------||
|--------------|------------|-------------------|--------x\---------||
|--------------|------------|-------------------|--------x\----0--0-||


 Guitar Solo
  Gtr IV
|-------12---12-------12---12-------12---------12---------12-|
|-15b17---------15b17---------15b17------15b17----15b17------|
|------------------------------------------------------------|
|------------------------------------------------------------|
|------------------------------------------------------------|
|------------------------------------------------------------|
|
| Gtrs II, III
|                                               PM
|------------------------0----(0)------0----------------0----|
|------------------------0----(0)------0----------------0----|
|------------------------------------------------------------|
|----------2-------------2----(2)------2----------------2----|
|--2-------------2------------------------------2------------|
|--0-------------0------------------------------0------------|


|-------12---------12---------12-------12-------12---------12--|
|-15b17------15b17----15b17------15b17----15b17----15b17-------|
|--------------------------------------------------------------|
|--------------------------------------------------------------|
|--------------------------------------------------------------|
|--------------------------------------------------------------|
|
|                   PM
|-(0)------0---------------------------------------------x-----|
|-(0)------0----------------0-----3----------------------x-----|
|---------------------------0-----4--------------6-------------|
|-(2)------2----------------------5--------------7-------------|
|-------------------2-------------5--------------7-------------|
|-------------------0-------------3--------------5-------------|


|-------12---------12---------12-15b16-12---------12---------12-|
|-15b17------15b17----15b17-----------------15b17----15b17------|
|---------------------------------------------------------------|
|---------------------------------------------------------------|
|---------------------------------------------------------------|
|---------------------------------------------------------------|
|
|                                                  PM
|---------------------------0----(0)------0----------------0----|
|---------------------------0----(0)------0----------------0----|
|---------------------------------------------------------------|
|----------2----------------2----(2)------2----------------2----|
|--2----------------2------------------------------2------------|
|--0----------------0------------------------------0------------|


                              ~~~~~~
|-15b16-12---------12------x-----------|
|------------15b17---------------------|
|---------------------15-----12--12----|
|-----------------------------------14-|
|--------------------------------------|
|--------------------------------------|
|
|                   PM
|-(0)------0-------------------------x-|
|-(0)------0-------------0----3------x-|
|------------------------0----4---6----|
|-(2)------2------------------5---7----|
|-------------------2---------5---7----|
|-------------------0---------3---5----|


|-12----------12----------12-----------12----------|
|-12h14p12----12h14p12----12h=14p12----12h14p12----|
|----------14----------14-----------14----------14-|
|--------------------------------------------------|
|--------------------------------------------------|
|--------------------------------------------------|
|
|                                       PM
|--------------------0----(0)-----0-----------0----|
|--------------------0----(0)-----0-----------0----|
|--------------------------------------------------|
|--------2-----------2----(2)-----2-----------2----|
|--2-----------2------------------------2----------|
|--0-----------0------------------------0----------|


|-12-----------12----------12----------12-12-----|
|-12h=14p12----12h14p12----12h14p12----12-12-----|
|-----------14----------14----------14-------0---|
|----------------------------------------------0-|
|------------------------------------------------|
|------------------------------------------------|
|
|               PM
|-(0)-----0--------------------------------x-----|
|-(0)-----0-----------0-----3--------------x-----|
|---------------------0-----4-----------6--------|
|-(2)-----2-----------------5-----------7--------|
|---------------2-----------5-----------7--------|
|---------------0-----------3-----------5--------|


|---12----------12h13p12s10-12-----12p------------------|
|------15-15-15-----------------14p12-------------------|
|-0-------15---------------------------12---------------|
|-----------------------------------------14-12h14p==12-|
|-------------------------------------------------------|
|-------------------------------------------------------|
|
|                                             PM
|-------------------0-------(0)-----0--------------0----|
|-------------------0-------(0)-----0--------------0----|
|-------------------------------------------------------|
|-------2-----------2-------(2)-----2--------------2----|
|-2-----------2-------------------------------2---------|
|-0-----------0-------------------------------0---------|


                          ~~~~~~~~~~                     ~~~~~~
|--------------------------------------------|-9---7-7---------------|
|--------------------------------------------|-8b9---8b9-------------|
|--------------------------------------------|-----------9-(9)---7---|
|------------------------------------------0-|---------------------9-|
|-14b17==(14)r---9s11------------------------|-----------------------|
|-----------------------[12]-([12])--7s9-----|-----------------------|
|
|                PM                                              PM
|-(0)----------0-------------------------x---|-----------0-(0)-0---0-|
|-(0)----------0------0---------3--------x---|-----------0-(0)-0---0-|
|---------------------0---------4----6-------|-----------------------|
|-(2)----------2----------------5----7-------|-----2-----2-(2)-2---2-|
|----------------2--------------5----7-------|-2-----2-----------2---|
|----------------0--------------3----5-------|-0-----0-----------0---|


                       ~~~~~~~~~~~~
|------------------------------------------|--------------------------------------------------|
|--7-------------------------------12---11-|-12-11s10s11-12-11s10s11-12--11s10s11-12-11s10s11-|
|-------[7]b9---7b9---[7]b9===(7)r---------|--------------------------------------------------|
|------------------------------------------|--------------------------------------------------|
|------------------------------------------|--------------------------------------------------|
|------------------------------------------|--------------------------------------------------|
|
|             PM                                                                   PM
|-(0)-0-------------------------------x----|--------------------0----(0)-----0-----------0----|
|-(0)-0-------------0--3--------------x----|--------------------0----(0)-----0-----------0----|
|-------------------0--4-------6-----------|--------------------------------------------------|
|-(2)-2----------------5-------7-----------|--------2-----------2----(2)-----2-----------2----|
|-------------2--------5-------7-----------|--2-----------2------------------------2----------|
|-------------0--------3-------5-----------|--0-----------0------------------------0----------|


|---------------------------------------------------|
|-12--11s10s11-12-11s10s11-12-11s10s11-12-11s10s11--|
|---------------------------------------------------|
|---------------------------------------------------|
|---------------------------------------------------|
|---------------------------------------------------|
|
|               PM
|-(0)-----0-----------------------------------x-----|
|-(0)-----0-----------0-----3-----------------x-----|
|---------------------0-----4-----------6-----------|
|-(2)-----2-----------------5-----------7-----------|
|---------------2-----------5-----------7-----------|
|---------------0-----------3-----------5-----------|


|-12----------12----------12-----------12---------------------------12-|
|----12----12----------------15p12--------15p12----12h14p12-(12)-12----|
|-------14-------15p12h14----------14-----------14---------------------|
|----------------------------------------------------------------------|
|----------------------------------------------------------------------|
|----------------------------------------------------------------------|
|
|                                                   PM
|--------------------------0-------(0)-----0------------------0--------|
|--------------------------0-------(0)-----0------------------0--------|
|----------------------------------------------------------------------|
|--------2-----------------2-------(2)-----2------------------2--------|
|--2--------------2---------------------------------2------------------|
|--0--------------0---------------------------------0------------------|


|------------12----------12-----------------17tr20b19===|
|--15p=12-------15p12-------15p12h14----x---------------|
|-(15)----14----------14----------------x---------------|
|------------------------------------x\---0-------------|
|------------------------------------x\-----------------|
|------------------------------------x\-----------------|
|
|                      PM
|--(0)--------0------------------------------x----------|
|--(0)--------0--------------0-------3-------x----------|
|----------------------------0-------4----6-------------|
|--(2)--------2----------------------5----7-------------|
|----------------------2-------------5----7-------------|
|----------------------0-------------3----5-------------|


|-(17tr20)r======(17tr20)b19====(17tr20)r==|=(17tr20)b19====(17tr20)r-------------|
|------------------------------------------|--------------------------0-----------|
|------------------------------------------|--------------------------0-----------|
|------------------------------------------|--------------------------0-----------|
|------------------------------------------|----------------------------5s16-x\---|
|------------------------------------------|----------------------------5s16-x\---|
|
|                                 PM                          PM
|--------------0--(0)---------0----------0-|--(0)---------0---------------------x-|
|--------------0--(0)---------0----------0-|--(0)---------0-----------0-3-------x-|
|------------------------------------------|--------------------------0-4----6----|
|----------2---2--(2)---------2----------2-|--(2)---------2-------------5----7----|
|---2--------2--------------------2--------|------------------2---------5----7----|
|---0--------0--------------------0--------|------------------0---------3----5----|


|-------------------------------------------------|
|-------------------------------------------------|
|-------------------------------------------------|
|-------------------------------------------------|
|-------------------------------------------------|
|-<5>-<5>-<5>-<x>-<4>-<4>-<3>-<3>-<3>-<2>-<2>-<2>-|
|
|-------------------------------------------------|
|-------------------------------------------------|
|-------------------------------------------------|
|-------------------------------------------------|
|-------------------------------------------------|
|-------------------------------------------------|


                                      ~~~~~~~~
|----------------------|-------------h7------|
|--------x-------0-----|---------------------|
|--------x-------------|-------------h7------|
|-x\---x----x----------|---------------------|
|-x\---x----x------<2>-|-(<2>)---------------|
|-x\---x----x----------|---------------------|
|
|      PM        PM              PM
|----------------------|---------------------|
|----------------------|---------------------|
|----------------------|-----------x--0--2p0-|
|----2---2-(2)-2----2--|--(2)--2---x--0--2p0-|
|-2----2-2-(2)-2-2--2--|--(2)----2-------0---|
|-0----0-0-(0)---0-----|---------0----3------|


 ~~~~~~~                             ~~
|--(7)------------------|-(7)---------------||
|-----------------------|-----------h8------||
|--(7)------------------|-(7)---------------||
|-----------------------|-------------------||
|-(<2>)-----------------|-------------------||
|-----------------------|-------------------||
|
|         PM        PM          PM
|-----------------------|-------------------||
|-----------------------|-------------------||
|-----------------------|---------x--0--2p0-||
|-------2---2-(2)-2---2-|-(2)-2---x--0--2p0-||
|---2-----2-2-(2)-2-2-2-|-(2)---2-------0---||
|---0-----0-0-(0)---0---|-------0----3------||


 Verse 2
|---------------------|------------------|
|-(8)-----------------|-(8)--------------|
|---------------------|------------------|
|---------------------|------------------|
|---------------------|------------------|
|---------------------|------------------|
|
|       PM        PM     PM   PM
|---------------------|------------------|
|---------------------|------------------|
|---------------------|-----------0--2px-|
|-----2---2-(2)-2---2-|-----2---2-0--2px-|
|--2------2-(2)-----2-|--------------0---|
|--0----0-0-(0)---0---|--0----0---3------|


|---------------------|-------------------|
|-(8)-----------------|-(8)\--------------|
|---------------------|-------------------|
|---------------------|-------------------|
|---------------------|-------------------|
|---------------------|-------------------|
|
|       PM        PM     PM    PM
|---------------------|-------------------|
|---------------------|-------------------|
|---------------------|------------0--2px-|
|-----2---2-(2)-2---2-|------2---2-0--2px-|
|--2------2-(2)-----2-|---------------0---|
|--0----0-0-(0)---0---|--0-----0---3------|


    Gtrs I, II
        PM        PM    PM  PM               PM        PM    PM  PM
                                                                              3x
||--------------------|----------------|-------------------|------------------||
||o-------------------|----------------|-------------------|-----------------o||
||--------------------|---------0--2px-|-------------------|---------0--2px---||
||----2---2-(2)-2---2-|---2---2-0--2px-|---2---2-(2)-2---2-|---2---2-0--2px---||
||o-2-----2-(2)-----2-|------------0---|-2-----2-(2)-----2-|------------0----o||
||--0---0-0-(0)---0---|-0---0---3------|-0---0-0-(0)---0---|-0---0---3--------||


 Chorus
  Gtr IV
|----------------|------------|------------|
|-29s============|=19s========|=10s========|
|-29s============|=19s========|=10s========|
|-29s============|=19s========|=10s========|
|----------------|------------|------------|
|----------------|------------|------------|
|
| Gtr III
|--0-0---(0)-----|-(0)--------|-(0)--------|
|--0-0---(0)-----|-(0)--------|-(0)--------|
|---------3------|-(3)--------|-(3)--------|
|----------------|------------|------------|
|----------------|------------|------------|
|----------------|------------|------------|
|
| Gtr II
|----------------|------------|------------|
|----------------|------------|------------|
|----------------|------------|------------|
|--2-2---(2)--2--|-(2)--------|-(2)--------|
|--2-2---(2)-----|------------|------------|
|--0-0---(0)-----|------------|------------|


|------------------------------------------------0---||
|--3s========================1---------0---------0---||
|--3s========================1---------0-------------||
|--3s========================1---------0-------------||
|----------------------------------------------------||
|----------------------------------------------------||
|
|          \1____/2____\2
|----------------------------------------------------||
|----------------------------------------------------||
|--------------------------------------x-------------||
|-<2>----(<2>)-(<2>)-(<2>)-(<2>)-------x-------------||
|--------------------------------------x---x\--------||
|------------------------------------------x\--------||
|
|  \3.5______________________/1____\1
|----------------------------------------------------||
|-<3>----------------------(<3>)-(<3>)---(<3>)-(<3>)-||
|----------------------------------------------------||
|----------------------------------------------------||
|----------------------------------------------------||
|----------------------------------------------------||


 Harmonica Solo
  Gtr II
  PM----------------------|         PM----------------------|
|-----------------|---------------|-----------------|------------------|
|-----------------|---------------|-----------------|------------------|
|-4-4-4-4-4-4-4-4-|-4-4-4-4-7-----|-4-4-4-4-4-4-4-4-|---------2-2-2-2--|
|-4-4-4-4-4-4-4-4-|-4-4-4-4-7--7--|-4-4-4-4-4-4-4-4-|-2-2-4-2-2-2-2-2--|
|-2-2-2-2-2-2-2-2-|-2-2-2-2-5--7--|-2-2-2-2-2-2-2-2-|-2-2-2-2-0-0-0-0--|
|-----------------|------------5--|-----------------|------------------|


                                                       1.,2.
    PM----------------------|         PM----------------------|
||------------------|---------------|-----------------|-----------------||
||o-----------------|---------------|-----------------|----------------o||
||--4-4-4-4-4-4-2-2-|-2-4-4---7-----|-4-4-4-4-4-4-2-2-|-2-4-4---2-2-2---||
||--4-4-4-4-4-4-2-2-|-2-4-4-0-7--7--|-4-4-4-4-4-4-2-2-|-2-4-4-2-2-2-2---||
||o-2-2-2-2-2-2-2-2-|-2-2-2---5--7--|-2-2-2-2-2-2-2-2-|-2-2-2-2-0-0-0--o||
||------------------|------------5--|-----------------|-----------------||


                     Guitar Solo
  3.
  Gtr IV
                                         ~~~~~~~~~
|------------------||----------------------|----------------------------|
|--------------/17s||=16s============17-17-|-(17)-------17s16-/17-(17)--|
|--------------/17s||=16s============17----|------------17s16-----------|
|------------------||----------------------|----------------------------|
|------------------||----------------------|----------------------------|
|------------------||----------------------|----------------------------|
|
| Gtr II
| PM----|
|------------------||----------------------|----------------------------|
|------------------||----------------------|----------------------------|
|-2-4-4---2--------||--2-2---2-(2)-2-----2-|--(2)-2------5----------7\--|
|-2-4-4-2-2--------||--2-2---2-(2)-2-----2-|--(2)-2------5----------7\--|
|-2-2-2-0-0--------||--0-0-0-0-(0)-0--0--0-|--(0)-0-0-0--3----------5\--|
|------------3-----||----------------------|----------------------------|


                              ~~~~~~~~~
|-------------------------------|---------------------0-x\-------|
|-15s17s15s17s15------17--------|-----------------------x\-16-17s|
|----------------/17-----/17-14-|-(14)-------(14)s17\------16-17s|
|-------------------------------|--------------------------------|
|-------------------------------|--------------------------------|
|-------------------------------|--------------------------------|
|
|-------------------------------|--------------------------------|
|-------------------------------|--------------------------------|
|--2--2-----2-----(2)--2------2-|--(2)-2-----------5----7\-------|
|--2--2-----2-----(2)--2------2-|--(2)-2-----------5----7\-------|
|--0--0--0--0-----(0)--0---0--0-|--(0)-0-0-0-------3----5\-------|
|-------------------------------|--------------------------------|


                     ~~~~~~~~~
|----------------------|------------------------|
|-16s============17-17-|-(17)--------/19--/19---|
|-16s============17----|--------17---/19--/19---|
|----------------------|------------------------|
|----------------------|------------------------|
|----------------------|------------------------|
|
|----------------------|------------------------|
|----------------------|------------------------|
|--2-2---2-(2)-2-----2-|--(2)-2--------5----7\--|
|--2-2---2-(2)-2-----2-|--(2)-2--------5----7\--|
|--0-0-0-0-(0)-0--0--0-|--(0)-0--0-0---3----5\--|
|----------------------|------------------------|


                           ~~~~~~~~~~~~~~~~
|----------------------------|------------------------------------------|
|-/19---17s13------14-/14----|------------------------------------------|
|-/19---------/14---------14-|-(14)---(14)-x---12-(12)-(12)s14-14s12s14-|
|----------------------------|------------------------------------------|
|----------------------------|------------------------------------------|
|----------------------------|------------------------------------------|
|
|----------------------------|------------------------------------------|
|----------------------------|-------------------------------------3----|
|---2-2-----2--(2)--2------2-|--(2)-2--------------------5---------2--0-|
|---2-2-----2--(2)--2------2-|--(2)-2--------------------5---------0----|
|---0-0--0--0--(0)--0---0--0-|--(0)-0---0----0-----------3--------------|
|----------------------------|-------------------------------------3----|


                                                ~~~~~~~
|--------------------------------|--------------------------------|
|-------------12s13-(13)---------|--------------------------------|
|-14s12s14-14--------------14s12-|-14s12S===14----------14--14s12-|
|--------------------------------|--------------------------------|
|--------------------------------|-------------12-(12)------------|
|--------------------------------|--------------------------------|
|
|--------------------------------|--------------------------------|
|--------------------------------|--------------------------------|
|-----2--2--------2--(2)-2-----2-|----(2)-2---------5----7\-------|
|-----2--2--------2--(2)-2-----2-|----(2)-2---------5----7\-------|
|-----0--0--0-----0--(0)-0--0--0-|----(0)-0--0--0---3----5\-------|
|--------------------------------|--------------------------------|


                              ~~~~~~~~~      T
|-------------------------------|----------------------------------------|
|-------------12s13----12s13----|---------------------------17s=15----17s|
|-(12)---14------------------14-|-(14)-----(14(21))-(14)s19--------17----|
|-------------------------------|----------------------------------------|
|-------------------------------|----------------------------------------|
|-------------------------------|----------------------------------------|
|
|-------------------------------|----------------------------------------|
|-------------------------------|----------------------------------------|
|---2--2----2----(2)-2--------2-|--(2)-2--------------5------7\----------|
|---2--2----2----(2)-2--------2-|--(2)-2--------------5------7\----------|
|---0--0--0-0----(0)-0-----0--0-|--(0)-0-0---0--------3------5\----------|
|-------------------------------|----------------------------------------|


|-------17-----------17-17s|=16s=17-17-17s16-17-20s=17-22--|
|-16s17----17s16s=17----17s|=16s=17----17s16---------------|
|--------------------------|-------------------------------|
|--------------------------|-------------------------------|
|--------------------------|-------------------------------|
|--------------------------|-------------------------------|
|
|--------------------------|-------------------------------|
|--------------------------|-------------------------------|
|--2--2-----2-(2)--2-----2-|-(2)--2--------5-----7\--------|
|--2--2-----2-(2)--2-----2-|-(2)--2--------5-----7\--------|
|--0--0--0--0-(0)--0--0--0-|-(0)--0--0--0--3-----5\--------|
|--------------------------|-------------------------------|


|-(22)-------(22)s====23-|-22s24----22s24---22s24-------22s24----||
|------------------------|---------------------------------------||
|------------------------|---------------------------------------||
|------------------------|---------------------------------------||
|------------------------|---------------------------------------||
|------------------------|---------------------------------------||
|
| Gtr III
|------------------------|---------------------------------------||
|------------------------|---------------------------------------||
|------------------------|--------------------------xsx----------||
|------------------------|--------------------------xsx-----x\---||
|------------------------|----------------------------------x\---||
|------------------------|---------------------------------------||
|
| Gtr II
|------------------------|---------------------------------------||
|------------------------|---------------------------------------||
|---2--2---2--(2)-2----2-|----(2)-2-----2-2----------------------||
|---2--2---2--(2)-2----2-|----(2)-2-----2-2----------------------||
|---0--0-0-0--(0)-0-0--0-|----(0)-0-----0-0----------------------||
|------------------------|----------------------3b4---------3b4--||


 Guitar Solo
      ~~~~~~~~~~~~~~~~~~~~~~~~~~~
|-22s24----------------24-|-(24)-------(24)\--------|
|-------------------------|-------------------------|
|-------------------------|-------------------------|
|-------------------------|-------------------------|
|-------------------------|-------------------------|
|-------------------------|-------------------------|
|
|------------0-(0)--------|--------0-----0----0-----|
|------------0-(0)---0--3-|--(3)---------2----2-----|
|-------------------------|-------------------2-----|
|-------------------------|-------------------------|
|-----x\------------------|-------------------------|
|-----x\---0--------------|-------------------------|
|
|                    PM            PM
|------------0-(0)-0----0-|--(0)-0--------------x---|
|------------0-(0)-0----0-|--(0)-0---0---3------x---|
|-------------------------|----------0---4----6-----|
|--------2---2-(2)-2----2-|--(2)-2-------5----7-----|
|-----2----2---------2----|--------2-----5----7-----|
|-----0----0---------0----|--------0-----3----5-----|


                      ~~~~~~~~
|-----0----0--0---------|-----0-0-------------|
|-3---2----0--0---------|-----0-0-x-----0-2-0-|
|---------------2p0-----|---------x-----0-2-0-|
|---------------------2-|-(2)-----x-----------|
|-----------------------|---------------------|
|-----------------------|-----------3b4-------|
|
| Gtr II
|               PM              PM
|-------0-(0)-0-----0---|-(0)-0-------------x-|
|-------0-(0)-0-----0---|-(0)-0---0-3-------x-|
|-----------------------|---------0-4-----6---|
|---2---2-(2)-2-----2---|-(2)-2-----5-----7---|
|-2---2---------2-------|-------2---5-----7---|
|-0---0---------0-------|-------0---3-----5---|


|------------------------------------|------------------------------------|
|-2-2p==0-2-2p==0---------0p---------|------------------------------------|
|-2-2p==0-2-2p==0--2--2p==0--2-2p==0-|--2--2p==0-2-2p==0-2-3p2p0-2-3p2p0--|
|------------------------------------|------------------------------------|
|------------------------------------|------------------------------------|
|------------------------------------|------------------------------------|
|
|                            PM                  PM
|-------------0---(0)---0--------0---|-(0)---0-----------------------x----|
|-------------0---(0)---0--------0---|-(0)---0-------0---3-----------x----|
|------------------------------------|---------------0---4-------6--------|
|-----2-------2---(2)---2--------2---|-(2)---2-----------5-------7--------|
|-2-------2------------------2-------|-----------2-------5-------7--------|
|-0-------0------------------0-------|-----------0-------3-------5--------|


|------------------------------0--|-(0)-0------0--(0)-0---0-------|
|------------------------------0--|-(0)-0------0--(0)-0-0-0-15b17-|
|-2-3p2p0-2-3p2p0--2--3p2p0-------|-------------------------------|
|---------------------------2-(2)-|-(2)-2---2-(2)-----------------|
|---------------------------------|-------------------------------|
|---------------------------------|-------------------------------|
|
|                           PM                 PM
|-------------0---(0)---0------0--|-(0)---0------------------x----|
|-------------0---(0)---0------0--|-(0)---0--------0--3------x----|
|---------------------------------|----------------0--4---6-------|
|-----2-------2---(2)---2------2--|-(2)---2-----------5---7-------|
|-2-------2-----------------2-----|------------2------5---7-------|
|-0-------0-----------------0-----|------------0------3---5-------|


|-12---------12-------12---------12----------12-------12---------|
|----15b17------15b17------15b17-----15b17------15b17------15b17-|
|----------------------------------------------------------------|
|----------------------------------------------------------------|
|----------------------------------------------------------------|
|----------------------------------------------------------------|
|
|                                                PM
|------------------------0-------(0)-------0-------------0-------|
|------------------------0-------(0)-------0-------------0-------|
|----------------------------------------------------------------|
|----------2-------------2-------(2)-------2-------------2-------|
|--2-------------2-------------------------------2---------------|
|--0-------------0-------------------------------0---------------|


|-12h=15p12----12h15p12----12h==15p12----12----12----17p15p12----17p=|
|-----------14----------15------------15----15----15----------15-----|
|--------------------------------------------------------------------|
|--------------------------------------------------------------------|
|--------------------------------------------------------------------|
|--------------------------------------------------------------------|
|
|                     PM
|-(0)--------0----------------------------------------------x--------|
|-(0)--------0----------------0--------3--------------------x--------|
|-----------------------------0--------4-----------6-----------------|
|-(2)--------2-------------------------5-----------7-----------------|
|---------------------2----------------5-----------7-----------------|
|---------------------0----------------3-----------5-----------------|


|-15p12------17p15p12----17p15p12----17p=15p12----17p15p12----17p15p12----17-|
|-------15------------15----------15-----------15----------15----------15----|
|----------------------------------------------------------------------------|
|----------------------------------------------------------------------------|
|----------------------------------------------------------------------------|
|----------------------------------------------------------------------------|
|
|                                                        PM
|----------------------------0-------(0)--------0-----------------0----------|
|----------------------------0-------(0)--------0-----------------0----------|
|----------------------------------------------------------------------------|
|----------2-----------------2-------(2)--------2-----------------2----------|
|--2----------------2------------------------------------2-------------------|
|--0----------------0------------------------------------0-------------------|


                                                                      T
|-(17)p15p12-15-17p15p12-15-17p15p12----17p15p12----17p15p12---15-17-18p==17p15p12--|
|------------------------------------15----------15---------------------------------|
|-----------------------------------------------------------------------------------|
|-----------------------------------------------------------------------------------|
|-----------------------------------------------------------------------------------|
|-----------------------------------------------------------------------------------|
|
|                      PM
|--(0)--------0---------------------------------------------------------x-----------|
|--(0)--------0-----------------0--------3------------------------------x-----------|
|-------------------------------0--------4-------------------6----------------------|
|--(2)--------2--------------------------5-------------------7----------------------|
|----------------------2-----------------5-------------------7----------------------|
|----------------------0-----------------3-------------------5----------------------|


   T     T          T     T             T             T      T           T     T           T
|-19p17-19p15p==12-18p17-18p==17p15p12-19p==17p15p12-18p=17-18p17p15p12-19p17h19-17p15p12-21p17p15p12-|
|-----------------------------------------------------------------------------------------------------|
|-----------------------------------------------------------------------------------------------------|
|-----------------------------------------------------------------------------------------------------|
|-----------------------------------------------------------------------------------------------------|
|-----------------------------------------------------------------------------------------------------|
|
|                                                                              PM
|-----------------------------------------0----------(0)-----------0-----------------------0----------|
|-----------------------------------------0----------(0)-----------0-----------------------0----------|
|-----------------------------------------------------------------------------------------------------|
|-------------2---------------------------2----------(2)-----------2-----------------------2----------|
|--2------------------------2--------------------------------------------------2----------------------|
|--0------------------------0--------------------------------------------------0----------------------|


|-21--17-21-22-17-15-12---21-15-17-15-12-22-17-15-12-21-20-15-17-15-12-22-21-17-15-21-22-12-9----|
|------------------------------------------------------------------------------------------------|
|------------------------------------------------------------------------------------------------|
|------------------------------------------------------------------------------------------------|
|------------------------------------------------------------------------------------------------|
|------------------------------------------------------------------------------------------------|
|
|                                         PM
|-(0)-------------------0-------------------------------------------------------------------x----|
|-(0)-------------------0--------------------------0--------3-------------------------------x----|
|--------------------------------------------------0--------4-----------------6------------------|
|-(2)-------------------2-----------------------------------5-----------------7------------------|
|-----------------------------------------2-----------------5-----------------7------------------|
|-----------------------------------------0-----------------3-----------------5------------------|


                                           ~~~~~~~~~~~~~~~~~~~~~~
|------22b24======(22)r---22b24-22b24==|=(22)r---22pb24====(22)r-x\---------|
|--------------------------------------|-------------------------x\---------|
|--------------------------------------|-------------------------x\-x-x---x-|
|-<19>---------------------------------|----------------------------x-x---x-|
|-<19>---------------------------------|------------------------------------|
|--------------------------------------|------------------------------------|
|
|                          PM                     PM
|---------------0--(0)--0--------0-----|--(0)--0------------------------x---|
|---------------0--(0)--0--------0-----|--(0)--0---------0---3----------x---|
|--------------------------------------|-----------------0---4------6-------|
|-------2-------2--(2)--2--------2-----|--(2)--2-------------5------7-------|
|---2---------2------------2-----------|----------2----------5------7-------|
|---0---------0------------0-----------|----------0----------3------5-------|


  PM----------------------------------------------------------|
|---------------------------|--------------------------------------|
|---------------------------|--------------------------------------|
|---------------------------|--------------------------------------|
|---------5-8----------8-11-|------------11-14-------------14-17---|
|-----4-7---------7-10------|------10-13-------------13-16---------|
|-3-6---------6-9-----------|-9-12-------------12-15---------------|
|
|---------------------------|--------------------------------------|
|---------------------------|--------------------------------------|
|---------------------------|--------------------------------------|
|---------------------------|--------------------------------------|
|---------------------------|--------------------------------------|
|---------------------------|--------------------------------------|


    ~~~~~~~~~~~~~~~~~~~~~~~~~~~~
|----------------------|--------------------------|
|----------------------|--------------------------|
|----------------------|----------------12p0------|
|-[14]-----------------|-([14])-12-12p0------11p0-|
|----------------------|--------------------------|
|----------------------|--------------------------|
|
|                  PM               PM
|----------0-(0)-0---0-|---(0)---0--------------x-|
|----------0-(0)-0---0-|---(0)---0----0--3------x-|
|----------------------|--------------0--4----6---|
|------2---2-(2)-2---2-|---(2)---2-------5----7---|
|---2----2---------2---|------------2----5----7---|
|---0----0---------0---|------------0----3----5---|


                                  ~~~~~~
|----------------------------|----------------------||
|----------------------------|----------------------||
|----------------------------|----------------------||
|----------------------------|-----------------x\---||
|-10-------------------------|-----------------x\---||
|----[12]-([12])-------------|-([12])----------x\---||
|
|                        PM             PM
|----------------0-(0)-0---0-|---(0)--0-----------x-||
|----------------0-(0)-0---0-|---(0)--0---0-3-----x-||
|----------------------------|------------0-4--6----||
|------2---------2-(2)-2---2-|---(2)--2-----5--7----||
|--2---------2-----------2---|----------2---5--7----||
|--0---------0-----------0---|----------0---3--5----||


   Verse 3
    PM----------------------|           PM----------------------|
                                                                            4x
||------------------|-----------------|-----------------|-------------------||
||o-----------------|-----------------|-----------------|------------------o||
||------------------|-----------0-2p0-|-----------------|-----------0-2p0---||
||----2---2---2---2-|---2---2-0---2p0-|---2---2---2---2-|---2---2-0---2p0---||
||o-2---2---2---2---|-2---2-------0---|-2---2---2---2---|-2---2-------0----o||
||--0---0---0---0---|-0---0---3-------|-0---0---0---0---|-0---0---3---------||


 Chorus
  Gtr IV
|---------------|------------------------|
|-24s===========|==15s===================|
|-24s===========|==15s===================|
|-24s===========|==15s===================|
|---------------|------------------------|
|---------------|------------------------|
|
| Gtr III
|                           ~~~~~~~~~~~~~~
|---------------|------------------------|
|--0-0----------|------------------------|
|--------<3>----|-(<3>)---(<3>)-(<3>)----|
|--2-2----------|------------------------|
|--2-2----------|------------------------|
|--0-0----------|------------------------|


|--------------|-----------------------|
|---9s=========|==5\-------------------|
|---9s=========|==5\-------------------|
|---9s=========|==5\-------------------|
|--------------|-----------------------|
|--------------|-----------------------|
|
|~~~~~~~          ~~~
|--------------|-----------------------|
|--------------|-----------------------|
|-(<3>)--------|-----------------------|
|--------------|-----[0]---[0]---------|
|--h7----------|-(7)------------([7])--|
|--------------|-----------------------|


    ~~~~~~~~~~~~~~~~~~~~~~~~~~~~~~~~
|--------------|--------------|-------------------------|
|--(0)---------|--(0)---------|-(0)------(0)------------|
|--------------|--------------|-------------------------|
|--------------|--------------|-------------------------|
|-([7])--------|-([7])--------|-(7)------(7)\-----------|
|--------------|--------------|-------------------------|
|
|                                             \1.5___/
|   ~~~~~~~~~~~~~~~~~~~~~~~~~~~~~~~~
|--------------|--------------|-------------------------|
|--------------|--------------|-------------------------|
|--------------|--------------|-------------------------|
|--------------|--------------|-------------------------|
|--(7)---------|--(7)---------|-(7)------(7)--0-----(0)-|
|--------------|--------------|-------------------------|
|
|                                                       G
|--------------|--------------|-------------------------|
|--------------|--------------|-------------------------|
|--------------|--------------|-------------------------|
|--------------|--------------|-------------------------|
|--------------|--------------|-------------------------|
|--------------|--------------|-------------------------|


  \1/  /2\               \2/  /1\
|-------------------------------------||
|-------------------------------------||
|-------------------------------------||
|-0---(0)----------------0---(0)------||
|-------------------------------------||
|-------------------------------------||
|
|      \2.5_____/1___\1
|-------------------------------------||
|-------------------------------------||
|-------------------------------------||
|-------------------------------------||
|------9p=======0---(0)---------------||
|-----------------------------0-------||
|
|trs V, VI
|---------------------------------14s=||
|---------------------------------15s=||
|-------------------------------------||
|-------------------------------------||
|-------------------------------------||
|-------------------------------------||


    Gtrs V, VI
                                             ~~~
||--13s================|=14----12--------------|
||o-14s================|=15----14---15--/14-12-|
||---------------------|------------16--/14-12-|
||---------------------|-----------------------|
||o--------------------|-----------------------|
||---------------------|-----------------------|
|
|   Gtrs II, III
|                  PM           PM
||---------0-(0)-0---0-|-(0)-0---------------x-|
||o--------0-(0)-0---0-|-(0)-0----0--3-------x-|
||---------------------|----------0--4----6----|
||-----2---2-(2)-2---2-|-(2)-2-------5----7----|
||o--2---2---------2---|--------2----5----7----|
||---0---0---------0---|--------0----3----5----|


 ~~~~~~~~~~~~~~~~~~~~~~~~~~~~~
                                                   3x
|----------------------|---------------------14s===||
|-(12)-----------------|-(12)-------(12)\----15s==o||
|-(12)-----------------|-(12)-------(12)\----------||
|----------------------|---------------------------||
|----------------------|--------------------------o||
|----------------------|---------------------------||
|
|                  PM           PM
|                                                  3x
|----------0-(0)-0---0-|--(0)-0---------------x----||
|----------0-(0)-0---0-|--(0)-0---0---3-------x---o||
|----------------------|----------0---4----6-------||
|------2---2-(2)-2---2-|--(2)-2-------5----7-------||
|---2----2---------2---|--------2-----5----7------o||
|---0----0---------0---|--------0-----3----5-------||


                                           ~~~
|-13s================|=14----12--------------|
|-14s================|=15----14---15--/14-12-|
|--------------------|------------16--/14-12-|
|--------------------|-----------------------|
|--------------------|-----------------------|
|--------------------|-----------------------|
|
|--------0-(0)-0---0-|-(0)-0-----------------|
|--------0-(0)-0---0-|-(0)-0-----------------|
|--------------------|----------0--0----2--0-|
|----2---2-(2)-2---2-|-(2)-2----0--0----2--0-|
|--2---2---------2---|--------2---------0----|
|--0---0---------0---|--------0----3---------|


 ~~~~~~~~~~~~~~~~~~~~~~~~~~~~~
|----------------------|---------------------14s=||
|-(12)-----------------|-(12)-------(12)\----15s=||
|-(12)-----------------|-(12)-------(12)\--------||
|----------------------|-------------------------||
|----------------------|-------------------------||
|----------------------|-------------------------||
|
|----------0-(0)-0---0-|--(0)-0------------------||
|----------0-(0)-0---0-|--(0)-0------------------||
|----------------------|----------0---0----7--7--||
|------2---2-(2)-2---2-|--(2)-2---0---0----7--7--||
|---2----2---------2---|--------2----------5--5--||
|---0----0---------0---|--------0-----3----------||


                                             ~~~
||--13s================|=14----12--------------|
||o-14s================|=15----14---15--/14-12-|
||---------------------|------------16--/14-12-|
||---------------------|-----------------------|
||o--------------------|-----------------------|
||---------------------|-----------------------|
|
||---------0-(0)-0---0-|-(0)-0-----------------|
||o--------0-(0)-0---0-|-(0)-0-----------------|
||---------------------|----------0--0----2--0-|
||-----2---2-(2)-2---2-|-(2)-2----0--0----2--0-|
||o--2---2---------2---|--------2---------0----|
||---0---0---------0---|--------0----3---------|


 ~~~~~~~~~~~~~~~~~~~~~~~~~~~~~
                                                   3x
|----------------------|---------------------14s===||
|-(12)-----------------|-(12)-------(12)\----15s==o||
|-(12)-----------------|-(12)-------(12)\----------||
|----------------------|---------------------------||
|----------------------|--------------------------o||
|----------------------|---------------------------||
|
|                                                  3x
|----------0-(0)-0---0-|--(0)-0--------------------||
|----------0-(0)-0---0-|--(0)-0-------------------o||
|----------------------|----------0---0----7--7----||
|------2---2-(2)-2---2-|--(2)-2---0---0----7--7----||
|---2----2---------2---|--------2----------5--5---o||
|---0----0---------0---|--------0-----3------------||


                                           ~~~
|-13s================|=14----12--------------|
|-14s================|=15----14---15--/14-12-|
|--------------------|------------16--/14s12-|
|--------------------|-----------------------|
|--------------------|-----------------------|
|--------------------|-----------------------|
|
|--------0-(0)-0---0-|-(0)-0-----------------|
|--------0-(0)-0---0-|-(0)-0-----------------|
|--------------------|----------0--0----2--0-|
|----2---2-(2)-2---2-|-(2)-2----0--0----2--0-|
|--2---2---------2---|--------2---------0----|
|--0---0---------0---|--------0----3---------|


 ~~~~~~~~~~~~~~~~~~~~~~~~~~~~~
|----------------------|---------------12s10-14-||
|-(12)-----------------|-(12)----------15s12-15-||
|-(12)-----------------|-(12)-------------------||
|----------------------|------------------------||
|----------------------|------------------------||
|----------------------|------------------------||
|
|----------0-(0)-0---0-|--(0)-0-----------------||
|----------0-(0)-0---0-|--(0)-0-----------------||
|----------------------|----------0-0------7--7-||
|------2---2-(2)-2---2-|--(2)-2---0-0------7--7-||
|---2----2---------2---|--------2----------5--5-||
|---0----0---------0---|--------0---3-----------||


  Gtrs II, III
|-------------------------|-------------------------||-------------|----------*|
|-------------------------|-------------------------||-------------|----------*|
|-------------------------|-------------------------||-------------|----------*|
|-x-x-x-x-x-x-x-x-x-x-x-x-|-x-x-x-x-x-x-x-x-x-x-x-x-||-2-2-2-2-2-2-|-2--------*|
|-x-x-x-x-x-x-x-x-x-x-x-x-|-x-x-x-x-x-x-x-x-x-x-x-x-||-2-2-2-2-2-2-|-2--------*|
|-------------------------|-------------------------||-0-0-0-0-0-0-|-0--------*|



***************************************************************************************
* Generated using Power Tab Editor by Brad Larsen - http://powertab.guitarnetwork.org *
***************************************************************************************
comments
print report bad tab
I want to post or [tab]
guest
You may want to rate the tab now too:
select rating
Please do not post tabs as comments. Select "correction" instead!