Oops, an error
Loading. Please wait.

Cant Slow Down Tab

ver1
ver1

Whole song

Interactive

More versions @911Tabs.com
1,894 views 1 this week
no commentswrite comment
1 2 3 4 5
please rate
Autoscroll
+/-
esc
set tempo
stop
Contributor
WARNING: You are trying to view
                                    content from Ultimate-Guitar.com
                                    in an unauthorized application,
                                    which is prohibited.

                                    Please use an official Ultimate
                                    Guitar Tabs application for iPhone,
                                    iPad or Android to access legitimate
                                    chords, guitar, bass, and drum tabs
                                    from Ultimate-Guitar.com database.

                                    Type "ultimate guitar tabs" in Apple
                                    App Store's or Android Market's
                                    search to find the application.
                                 CAN'T SLOW DOWN
                           As recorded by Joe Satriani
                  (From the 1989 Album FLYING IN A BLUE DREAM)

Words and Music by Joe Satriani
Transcribed by www.mikesguitarsite.co.uk

 Intro
  Q=138
 4/4
  Gtr I
                                                            \7
                                   ~~~~~~~~~~~~~~~~~
|-----|----------|------------|---------------|-----------------||
|-/10s|=8--------|-(8)--------|---------------|-----------------||
|-----|----------|------------|---------------|-----------------||
|-----|----------|------------|---------------|-----------------||
|-----|----------|------------|-/3s5---(5)----|-(5)--------(5)--||
|-----|----------|------------|---------------|-----------------||
|
|                                             Gtr II
|-----|----------|------------|---------------|-----------------||
|-----|----------|------------|---------------|-----------------||
|-----|----------|------------|---------------|-----------------||
|-----|----------|------------|---------------|-----------------||
|-----|----------|------------|---------------|--xs=xs=x\-------||
|-----|----------|------------|---------------|--xs=xs=x\--12\--||


||--------------------------------|
||o-------------------------------|
||--------------------------------|
||--11---12-(12)---14-(14)-17--14-|
||o--0-0--0--(0)-0--0--(0)--0---0-|
||--------------------------------|


                                          PM--------|
|---------------------------------------|------------------------------|
|---------------------------------------|------------------------------|
|---------------------------------------|-------------------2-(2)-2-2--|
|-16---12-(12)-14-14-(14)-14-(14)-14-14-|-------------2-(2)-2-(2)-2-2--|
|--0-0--0--(0)--0--0--(0)--0--(0)--0--0-|-------------0-(0)-0-(0)------|
|---------------------------------------|-2-0-3-(3)-0------------------|


|-------------------------------|-------------------------------|
|-------------------------------|-------------------------------|
|-------------------2-(2)-------|-------------------------------|
|-5p0-7p0-----------2-(2)-------|-11---12-(12)---14-(14)-17--14-|
|---------5h7p5p0-0-------0-0-0-|--0-0--0--(0)-0--0--(0)--0---0-|
|-------------------------------|-------------------------------|


|------------------------------------|
|------------------------------------|
|------------------------------------|
|-<19>-12-(12)---11-(11)-------14-14-|
|-------0--(0)-0--0--(0)-0-(0)--0--0-|
|------------------------------------|


  PM--------|
|-----------------------------|
|-----------------------------|
|-------------------2-(2)-2-2-|
|-------------2-(2)-2-(2)-2-2-|
|-------------0-(0)-0-(0)-----|
|-2-0-3-(3)-0-----------------|


 1.                                 2.
|--------------------------------||-----------------------||
|-------------------------------o||-----------------------||
|-------------------2-(2)--------||-----------------------||
|-5p0-7p0-----------2-(2)--------||--5p0-7p0---------2----||
|---------5h7p5p0-0-0-(0)-0-0-0-o||----------5h7p5p0-0----||
|--------------------------------||-----------------------||


 Verse 1 + 3
  $$
|--------------------|-----------------------------|
|-3-3-(3)-2-(2)------|-----------------------------|
|-2-2-(2)-2-(2)-2----|-2-0-2-(2)-0-2-(2)-----------|
|-2-2-(2)-2-(2)-2----|-2-0-2-(2)-0-2-(2)-------2---|
|------------------0-|-------------------------0-0-|
|--------------------|-------------------3b3.5-----|


|--------------------|------------------------------|
|-3-3-(3)-2-(2)------|------------------------------|
|-2-2-(2)-2-(2)-2----|-2-0-2-(2)-0-2-(2)------------|
|-2-2-(2)-2-(2)-2----|-2-0-2-(2)-0-2-(2)-------2----|
|------------------0-|-------------------------0-0--|
|--------------------|-------------------3b3.5------|


|--------------------|-----------------------------|
|-3-3-(3)-2-(2)------|-----------------------------|
|-2-2-(2)-2-(2)-2----|-2-0-2-(2)-0-2-(2)-----------|
|-2-2-(2)-2-(2)-2----|-2-0-2-(2)-0-2-(2)-------2---|
|------------------0-|-------------------------0-0-|
|--------------------|-------------------3b3.5-----|


|--------------------|------------------------------|
|-3-3-(3)-2-(2)------|------------------------------|
|-2-2-(2)-2-(2)-2----|-2-0-2-(2)-0-2-(2)------------|
|-2-2-(2)-2-(2)-2----|-2-0-2-(2)-0-2-(2)-------2----|
|------------------0-|-------------------------0-0--|
|--------------------|-------------------3b3.5------|


|--------------------|-----------------------------|
|-3-3-(3)-2-(2)------|-----------------------------|
|-2-2-(2)-2-(2)-2----|-2-0-2-(2)-0-2-(2)-----------|
|-2-2-(2)-2-(2)-2----|-2-0-2-(2)-0-2-(2)-------2---|
|------------------0-|-------------------------0-0-|
|--------------------|-------------------3b3.5-----|


|--------------------|------------------------------|
|-3-3-(3)-2-(2)------|------------------------------|
|-2-2-(2)-2-(2)-2----|-2-0-2-(2)-0-2-(2)------------|
|-2-2-(2)-2-(2)-2----|-2-0-2-(2)-0-2-(2)-------2----|
|------------------0-|-------------------------0-0--|
|--------------------|-------------------3b3.5------|


|--------------------|-----------------------------|
|-3-3-(3)-2-(2)------|-----------------------------|
|-2-2-(2)-2-(2)-2----|-2-0-2-(2)-0-2-(2)-----------|
|-2-2-(2)-2-(2)-2----|-2-0-2-(2)-0-2-(2)-------2---|
|------------------0-|-------------------------0-0-|
|--------------------|-------------------3b3.5-----|


|--------------------|------------------------------||
|-3-3-(3)-2-(2)------|------------------------------||
|-2-2-(2)-2-(2)-2----|-2-0-2-(2)-0-2-(2)------------||
|-2-2-(2)-2-(2)-2----|-2-0-2-(2)-0-2-(2)-------2----||
|------------------0-|-------------------------0-0--||
|--------------------|-------------------3b3.5------||


 Chorus
  $
  PM--------------------------------------------------------------|
|---------------------------------|---------------------------------|
|---------------------------------|---------------------------------|
|---------------------------------|---------------------------------|
|---------------------------------|---------------------------------|
|---------------------------------|---------------------------------|
|-3-3-3-3-3-3-3-3-2-2-2-2-2-2-2-2-|-0-0-0-0-0-0-0-0-2-2-2-2-2-2-2-2-|


|-------------------------|-------------------|
|-------------------------|-3-------------5---|
|-------------------------|-0-0-(0)-------2---|
|-2---2-(2)---2-(2)---2S5-|---4-(4)-2-(2)-----|
|-0---0-(0)---0-(0)---0---|---------0-(0)-----|
|---3-------3-------3-----|-------------------|


  PM--------------------------------------------------------------|
|---------------------------------|---------------------------------|
|---------------------------------|---------------------------------|
|---------------------------------|---------------------------------|
|---------------------------------|---------------------------------|
|---------------------------------|---------------------------------|
|-3-3-3-3-3-3-3-3-2-2-2-2-2-2-2-2-|-0-0-0-0-0-0-0-0-2-2-2-2-2-2-2-2-|
|
|---------------------------------|---------------------------------|
|---------------------------------|---------------------------------|
|---------------------------------|---------------------------------|
|---------------------------------|---------------------------------|
|---------------------------------|---------------------------------|
|---------------------------------|---------------------------------|


                                                                               To Coda
                                                                               To Coda
|-------------------------|---------------------------------------------------------------||
|-------------------------|---------------------------------------------------------------||
|-------------------------|---------------------------------------------------------------||
|-2---2-(2)---2-(2)---2S5-|---------------------------------------------------------------||
|-0---0-(0)---0-(0)---0---|-<12>-<12>-<12>-<7>-<7>-<7>-<5>-<5>-<5>-<4>-<4>-<4>-<2>-x/-----||
|---3-------3-------3-----|---------------------------------------------------------------||
|
|-------------------------|---------------------------------------------------------------||
|-------------------------|---3-----------------------------------------5-----------------||
|-------------------------|---0-------------0--(0)----------------------2-----------------||
|-------------------------|-----------------4--(4)------2------(2)------------------------||
|-------------------------|-----------------------------0------(0)------------------------||
|-------------------------|---------------------------------------------------------------||


|-------------------------------|---------------------------------------|
|-------------------------------|---------------------------------------|
|-------------------------------|---------------------------------------|
|-11---12-(12)---14-(14)-17--14-|-16---12-(12)-14-14-(14)-14-(14)-14-14-|
|--0-0--0--(0)-0--0--(0)--0---0-|--0-0--0--(0)--0--0--(0)--0--(0)--0--0-|
|-------------------------------|---------------------------------------|


  PM--------|
|-----------------------------|-------------------------------|
|-----------------------------|-------------------------------|
|-------------------2-(2)-2-2-|-------------------2-(2)-------|
|-------------2-(2)-2-(2)-2-2-|-5p0-7p0-----------2-(2)-------|
|-------------0-(0)-0-(0)-----|---------5h7p5p0-0-------0-0-0-|
|-2-0-3-(3)-0-----------------|-------------------------------|


|-------------------------------|------------------------------------|
|-------------------------------|------------------------------------|
|-------------------------------|------------------------------------|
|-11---12-(12)---14-(14)-17--14-|-<19>-12-(12)---11-(11)-------14-14-|
|--0-0--0--(0)-0--0--(0)--0---0-|-------0--(0)-0--0--(0)-0-(0)--0--0-|
|-------------------------------|------------------------------------|


  PM--------|
|-----------------------------|----------------------||
|-----------------------------|----------------------||
|-------------------2-(2)-2-2-|----------------------||
|-------------2-(2)-2-(2)-2-2-|-5p0-7p0---------2----||
|-------------0-(0)-0-(0)-----|---------5h7p5p0-0----||
|-2-0-3-(3)-0-----------------|----------------------||


 Verse 2
|--------------------|-----------------------------|
|-3-3-(3)-2-(2)------|-----------------------------|
|-2-2-(2)-2-(2)-2----|-2-0-2-(2)-0-2-(2)-----------|
|-2-2-(2)-2-(2)-2----|-2-0-2-(2)-0-2-(2)-------2---|
|------------------0-|-------------------------0-0-|
|--------------------|-------------------3b3.5-----|


|--------------------|------------------------------|
|-3-3-(3)-2-(2)------|------------------------------|
|-2-2-(2)-2-(2)-2----|-2-0-2-(2)-0-2-(2)------------|
|-2-2-(2)-2-(2)-2----|-2-0-2-(2)-0-2-(2)-------2----|
|------------------0-|-------------------------0-0--|
|--------------------|-------------------3b3.5------|


|--------------------|-----------------------------|
|-3-3-(3)-2-(2)------|-----------------------------|
|-2-2-(2)-2-(2)-2----|-2-0-2-(2)-0-2-(2)-----------|
|-2-2-(2)-2-(2)-2----|-2-0-2-(2)-0-2-(2)-------2---|
|------------------0-|-------------------------0-0-|
|--------------------|-------------------3b3.5-----|


                                       D.S. al Coda
|--------------------|------------------------------||
|-3-3-(3)-2-(2)------|------------------------------||
|-2-2-(2)-2-(2)-2----|-2-0-2-(2)-0-2-(2)------------||
|-2-2-(2)-2-(2)-2----|-2-0-2-(2)-0-2-(2)-------2----||
|------------------0-|-------------------------0-0--||
|--------------------|-------------------3b3.5------||


  &
  PM--------------------------------------------------------------|
|---------------------------------|---------------------------------|
|---------------------------------|---------------------------------|
|---------------------------------|---------------------------------|
|---------------------------------|---------------------------------|
|---------------------------------|---------------------------------|
|-3-3-3-3-3-3-3-3-2-2-2-2-2-2-2-2-|-0-0-0-0-0-0-0-0-2-2-2-2-2-2-2-2-|


|-------------------------|-------------------|
|-------------------------|-3-------------5---|
|-------------------------|-0-0-(0)-------2---|
|-2---2-(2)---2-(2)---2S5-|---4-(4)-2-(2)-----|
|-0---0-(0)---0-(0)---0---|---------0-(0)-----|
|---3-------3-------3-----|-------------------|


|---------------------------------|---------------------------------|
|---------------------------------|---------------------------------|
|---------------------------------|---------------------------------|
|---------------------------------|---------------------------------|
|---------------------------------|---------------------------------|
|---------------------------------|---------------------------------|
|
| Gtr I
| PM--------------------------------------------------------------|
|---------------------------------|---------------------------------|
|---------------------------------|---------------------------------|
|---------------------------------|---------------------------------|
|---------------------------------|---------------------------------|
|---------------------------------|---------------------------------|
|-3-3-3-3-3-3-3-3-2-2-2-2-2-2-2-2-|-0-0-0-0-0-0-0-0-2-2-2-2-2-2-2-2-|


                          Gtr II
|-------------------------|-----------------------------||
|-------------------------|-----------------------------||
|-------------------------|-----------------------------||
|-------------------------|-----------------------------||
|-------------------------|-x\--------------------------||
|-------------------------|-x\--------------------------||
|
|-------------------------|-----------------------------||
|-------------------------|-----------------------------||
|-------------------------|-----------------------------||
|-2---2-(2)---2-(2)---2---|-2----2-(2)---2-(2)---2------||
|-0---0-(0)---0-(0)---0---|-0----0-(0)---0-(0)---0------||
|---3-------3-------3---3-|----3-------3-------3---3----||


 Guitar Solo
|-16h17p16p14------14-16h=17p==16p14----14-16h=17p16p14----14-16h17p16p14----14-|
|-------------17---------------------17-----------------17----------------17----|
|-------------------------------------------------------------------------------|
|-------------------------------------------------------------------------------|
|-------------------------------------------------------------------------------|
|-------------------------------------------------------------------------------|
|
|                                  ~~~~~~~~~~~~
|-------------------------------------------------------------------------------|
|-------------------------------------------------------------------------------|
|-------------------------------------------------------------------------------|
|-------------------------------------------------------------------------------|
|-------------------------------------------------------------------------------|
|--2--------0----2----(2)----0-----2-------(2)--------0--------2--------5-------|


|-16-17p16p14---------16--17p==16p14----14-16--17p16p14----14-16-17p16p14----14-|
|-------------17---14----------------17-----------------17----------------17----|
|-------------------------------------------------------------------------------|
|-------------------------------------------------------------------------------|
|-------------------------------------------------------------------------------|
|-------------------------------------------------------------------------------|
|
|                                  ~~~~~~~~~~~~
|-------------------------------------------------------------------------------|
|-------------------------------------------------------------------------------|
|-------------------------------------------------------------------------------|
|-------------------------------------------------------------------------------|
|-------------------------------------------------------------------------------|
|--2--------0----2----(2)----0-----2-------(2)--------0--------2--------0-------|


|-17-19p17p14--------16--17p16p14--------------------------------------------|
|-------------x---14--------------17-14-16h=17p16-14-16-14-16h17p16p14-------|
|----------------------------------------------------------------------17-14-|
|----------------------------------------------------------------------------|
|----------------------------------------------------------------------------|
|----------------------------------------------------------------------------|
|
|                                  ~~~~~~~~~
|----------------------------------------------------------------------------|
|----------------------------------------------------------------------------|
|----------------------------------------------------------------------------|
|----------------------------------------------------------------------------|
|----------------------------------------------------------------------------|
|--2--------0---2----(2)-----0-----2----(2)-----------0-----2-----------5----|


|--------------------------------------------------------------------------------------|
|-16h17p16p14--------------------------------------------------------------------------|
|-------------17p==14h16p=14p13h14h16p14p13s11h13p=11-11h13h14p13p11s9h11h13p9s8-11----|
|--------------------------------------------------------------------------------------|
|--------------------------------------------------------------------------------------|
|--------------------------------------------------------------------------------------|
|
|---------------------------------------------------------0--------------------0-------|
|---------------------------------------------------------0--------------------0-------|
|--------------------------------------------------------------------------------------|
|--------------------------------------------------------------------------------------|
|-----------------------------------2----------(2)-------------------------------------|
|--2--------0----2----(2)-----0-----0----------(0)-------------------0-----------------|


|----------------------------------------------------------------|
|----------------------------------------------------------------|
|-6h8h9-(9)p8p6s8--8h=9h11p8s6-8h9p=8p=6-----------------------8-|
|----------------------------------------9-6h7h9-6h7h9p7p6h7h9---|
|----------------------------------------------------------------|
|----------------------------------------------------------------|
|
|                            ~~~~~~~~~~
|----------------------------------------------------------------|
|----------------------------------------------------------------|
|----------------------------------------------------------------|
|----------------------------------------------------------------|
|----------------------------------------------------------------|
|-2------0----2---(2)----0---2-----(2)-----0-----2-------5-------|


|--------------------------------------------------------------|
|--------------------------------------------------------------|
|-8h9p8p6-----6--8h=9p==8p6---6--8h=9p8p6----------------------|
|---------9-----------------9-------------9-6h7h9p7p6s7h9h11---|
|--------------------------------------------------------------|
|--------------------------------------------------------------|
|
|                         ~~~~~~~~~~
|--------------------------------------------------------------|
|--------------------------------------------------------------|
|--------------------------------------------------------------|
|--------------------------------------------------------------|
|--------------------------------------------------------------|
|-2-----0---2---(2)---0---2-----(2)-----0-----2-------0--------|


|---------------------------------------------------------|
|---------------------------------------------------------|
|-8h9h11p8s6h8h9p=8------------------6--------------------|
|--------------------9-6h7h9p=6h=7h9---7p6-6h7h9p6s7h9h11-|
|---------------------------------------------------------|
|---------------------------------------------------------|
|
|                      ~~~~~~~~~~
|---------------------------------------------------------|
|---------------------------------------------------------|
|---------------------------------------------------------|
|---------------------------------------------------------|
|---------------------------------------------------------|
|-2--------0-2---(2)-0-2-----(2)-------0---2-------5------|


|---------------------------------------|
|---------------------------------------|
|-------------------------4---(4)-2-----|
|-6h7h9p6s4-----------------------------|
|------------4s=2-4s6--6----------------|
|---------------------------------------|
|
|---------------------------0-------0---|
|---------------------------0-------0---|
|---------------------------------------|
|---------------------------------------|
|-----------------2---(2)---------------|
|-2-----0-2-(2)-0-0---(0)------0--------|


|--------------2--------------------------|
|-----------------5-2----2----2---2-------|
|-4b6==(4)r-----------4-----5---5---5-4-2-|
|-----------------------------------------|
|-----------------------------------------|
|-----------------------------------------|
|
|                   ~~~~~~~~
|-----------------------------------------|
|-----------------------------------------|
|-----------------------------------------|
|-----------------------------------------|
|-----------------------------------------|
|-2-----0---2-(2)-0-2---(2)---0---2---5---|


|-------------------------------------|
|----------2--5-2-1s=2----2-2-5p4p2s1-|
|---2-4-5---------------5-------------|
|-4-----------------------------------|
|-------------------------------------|
|-------------------------------------|
|
|               ~~~~~~~~
|-------------------------------------|
|-------------------------------------|
|-------------------------------------|
|-------------------------------------|
|-------------------------------------|
|-2---0-2-(2)-0-2---(2)---0---2---0---|


|-------------------------------------------------|
|-2-4-5p4p==2--4--4b5r(4)p2----2--------5p4p2---2-|
|---------------------------5-----5-4-2-------5---|
|-------------------------------------------------|
|-------------------------------------------------|
|-------------------------------------------------|
|
|                         ~~~~~~~~
|-------------------------------------------------|
|-------------------------------------------------|
|-------------------------------------------------|
|-------------------------------------------------|
|-------------------------------------------------|
|-2---0---2---(2)-0-------2---(2)---0---2-----5---|


                   ~~~~~~~~~
|---------------------------2-----2--|
|-4p2---2----------------------------|
|-----5----5--4-2-[4]-([4])---/x\----|
|------------------------------------|
|------------------------------------|
|------------------------------------|
|
|---------------------------0-----0--|
|---------------------------0-----0--|
|------------------------------------|
|------------------------------------|
|---------------2------(2)-----------|
|-2---0-2-(2)-0-0------(0)-----0-----|


|-5p2p0--------2p=0-2p0--7p=5p0-(0)-0-7p5p0-0-7p5p0-|
|-------0h2-----------------------------------------|
|---------------------------------------------------|
|---------------------------------------------------|
|---------------------------------------------------|
|---------------------------------------------------|
|
|                   ~~~~~~~~
|---------------------------------------------------|
|---------------------------------------------------|
|---------------------------------------------------|
|---------------------------------------------------|
|---------------------------------------------------|
|-2-----0---2-(2)-0-2---(2)------0------2-----5-----|


|-9p7p0-(0)-0-9p=7p=0---0-9p7p0-12p=9p0-(0)-0-12p9p0-0-12p9p0--|
|--------------------------------------------------------------|
|--------------------------------------------------------------|
|--------------------------------------------------------------|
|--------------------------------------------------------------|
|--------------------------------------------------------------|
|
|                         ~~~~~~~~~~
|--------------------------------------------------------------|
|--------------------------------------------------------------|
|--------------------------------------------------------------|
|--------------------------------------------------------------|
|--------------------------------------------------------------|
|-2------0----2-(2)---0---2-----(2)------0-------2------0------|


|-14p12p0-(0)-0-14p12p=0---0-14p12p0-17p=14p0-(0)-0-17-------|
|------------------------------------------------------14/---|
|------------------------------------------------------------|
|------------------------------------------------------------|
|------------------------------------------------------------|
|----------------------------------------------------------xs|
|
|                             ~~~~~~~~~~~
|------------------------------------------------------------|
|------------------------------------------------------------|
|------------------------------------------------------------|
|------------------------------------------------------------|
|------------------------------------------------------------|
|--2-------0-----2-(2)---0----2------(2)-------0--------2--5-|


                      ~~~~~
|----19b21-----------19b21-----9-9--|
|-----------------------------------|
|------------------------------6-6--|
|-----------------------------------|
|-----------------------------------|
|-x\------------------------x\------|
|
|-----------------------------------|
|-----------------------------------|
|-----------------------------------|
|-----------------------------------|
|------------------4--4-------------|
|-2---0----2-(2)-0-2--2-------------|


|-11-11-11S12-12--12S14-14-14--14-14-14S17-17-17-17S|
|---------------------------------------------------|
|--8--8--8S=9--9---9S11-11-11--11-11-11S14-14-14-14S|
|---------------------------------------------------|
|---------------------------------------------------|
|---------------------------------------------------|
|
|---------------------------------------------------|
|---------------------------------------------------|
|--4--------4-(4)-----4----(4)--4--4--4--4--4--4--4-|
|--4--------4-(4)-----4----(4)--4--4--4--4--4--4--4-|
|--2--------2-(2)-----2----(2)--2--2--2--2--2--2--2-|
|---------------------------------------------------|


|-16-16-16S12-12--12S14-14-14--14-14-14-14-14-14s16--|
|----------------------------------------------------|
|-13-13-13S=9--9---9S11-11-11--11-11-11-11-11-11s13--|
|----------------------------------------------------|
|----------------------------------------------------|
|----------------------------------------------------|
|
|----------------------------------------------------|
|----------------------------------------------------|
|--4--------4-(4)-----4----(4)--4--4--4--4-----------|
|--4--------4-(4)-----4----(4)--4--4--4--4-----------|
|--2--------2-(2)-----2----(2)--2--2--2--2-----------|
|----------------------------------------------------|


|-16-16-16S17-17--17S19-19-19-19-19S22-22-22-22-22S|
|--------------------------------------------------|
|-13-13-13S14-14--14S16-16-16-16-16S19-19-19-19-19S|
|--------------------------------------------------|
|--------------------------------------------------|
|--------------------------------------------------|
|
|--------------------------------------------------|
|--------------------------------------------------|
|--9--------9-(9)--9--9--9--9--9--9--9--9--9--9----|
|--9--------9-(9)--9--9--9--9--9--9--9--9--9--9----|
|--7--------7-(7)--7--7--7--7--7--7--7--7--7--7----|
|--------------------------------------------------|


                         ~~~
|-21-21-21S17-17--17S19-19----(19)/-||
|-----------------------------------||
|-18-18-18S14-14--14----------------||
|-----------------------------------||
|-----------------------------------||
|-----------------------------------||
|
|-----------------------------------||
|-----------------------------------||
|--7--------------------------------||
|--7--------7-(7)-----2-(2)---------||
|--5--------7-(7)-----2-(2)---------||
|-----------5-(5)-----0-(0)---------||


  Gtr I
|----------------------------|------------------------|
|----------------------------|------------------------|
|----------------------------|------------------------|
|-11-12-(12)-14-(14)-14s17---|-16--12-(12)-14-(14)----|
|--0--0--(0)--0--(0)--0-(0)--|--0---0--(0)--0--(0)----|
|----------------------------|------------------------|
|
| Gtr II
|----------------------------|------------------------|
|----------------------------|------------------------|
|--2-------------------------|-(2)--------------------|
|--2-------------------------|-(2)--------------------|
|--0-------------------------|-(0)--------------------|
|----------------------------|------------------------|


   PM---------|
|-------------------------|-------------------------------|
|-------------------------|-------------------------------|
|---------------------2---|---------------------2---------|
|---------------------2---|--5p=0-7p0-----------2--(2)/---|
|---------------0-(0)-0---|-----------5h7p5p0-0-----------|
|--2--0-3-(3)-0-----------|-------------------------------|
|
|-------------------------|-------------------------------|
|-------------------------|-------------------------------|
|-(2)---------------------|-(2)---------------------------|
|-(2)---------------------|-(2)---------------------------|
|-(0)---------------------|-(0)---------------------------|
|-------------------------|-------------------------------|


|--------------------------------|------------------------------------|
|--------------------------------|------------------------------------|
|--------------------------------|------------------------------------|
|-11----12-(12)---14-(14)-17--14-|-<19>-12-(12)---11-(11)-------14-14-|
|--0--0--0--(0)-0--0--(0)--0---0-|-------0--(0)-0--0--(0)-0-(0)--0--0-|
|--------------------------------|------------------------------------|
|
|--------------------------------|------------------------------------|
|--------------------------------|------------------------------------|
|-(2)----------------------------|--(2)-------------------------------|
|-(2)----------------------------|--(2)-------------------------------|
|-(0)----------------------------|--(0)-------------------------------|
|--------------------------------|------------------------------------|


   PM---------|
|-------------------------------|----------------------------------|
|-------------------------------|----------------------------------|
|---------------------2-(2)-2-2-|---------------------2-(2)--------|
|---------------2-(2)-2-(2)-2-2-|--5p=0-7p0-----------2-(2)--------|
|---------------0-(0)-0-(0)-----|-----------5h7p5p0-0-0-(0)-0-0-0--|
|--2--0-3-(3)-0-----------------|----------------------------------|
|
|-------------------------------|----------------------------------|
|-------------------------------|----------------------------------|
|-(2)---------------------------|-(2)------------------------------|
|-(2)---------------------------|-(2)------------------------------|
|-(0)---------------------------|-(0)------------------------------|
|-------------------------------|----------------------------------|


|--------------------------------|----------------------------------------|
|--------------------------------|----------------------------------------|
|--------------------------------|----------------------------------------|
|-11----12-(12)---14-(14)-17--14-|-16----12-(12)-14-14-(14)-14-(14)-14-14-|
|--0--0--0--(0)-0--0--(0)--0---0-|--0--0--0--(0)--0--0--(0)--0--(0)--0--0-|
|--------------------------------|----------------------------------------|
|
|--------------------------------|----------------------------------------|
|--------------------------------|----------------------------------------|
|-(2)----------------------------|-(2)------------------------------------|
|-(2)----------------------------|-(2)------------------------------------|
|-(0)----------------------------|-(0)------------------------------------|
|--------------------------------|----------------------------------------|


   PM---------|
|-------------------------------|---------------------------------|
|-------------------------------|---------------------------------|
|---------------------2-(2)-2-2-|---------------------2-(2)-------|
|---------------2-(2)-2-(2)-2-2-|--5p=0-7p0-----------2-(2)-------|
|---------------0-(0)-0-(0)-----|-----------5h7p5p0-0-------0-0-0-|
|--2--0-3-(3)-0-----------------|---------------------------------|
|
|-------------------------------|---------------------------------|
|-------------------------------|---------------------------------|
|-(2)---------------------------|-(2)-----------------------------|
|-(2)---------------------------|-(2)-----------------------------|
|-(0)---------------------------|-(0)-----------------------------|
|-------------------------------|---------------------------------|


|--------------------------------|------------------------------------|
|--------------------------------|------------------------------------|
|--------------------------------|------------------------------------|
|-11----12-(12)---14-(14)-17--14-|-<19>-12-(12)---11-(11)-------14-14-|
|--0--0--0--(0)-0--0--(0)--0---0-|-------0--(0)-0--0--(0)-0-(0)--0--0-|
|--------------------------------|------------------------------------|
|
|--------------------------------|------------------------------------|
|--------------------------------|------------------------------------|
|-(2)----------------------------|--(2)-------------------------------|
|-(2)----------------------------|--(2)-------------------------------|
|-(0)----------------------------|--(0)-------------------------------|
|--------------------------------|------------------------------------|


                                              D.S.S. al Dbl. Coda
   PM---------|
|-------------------------------|---------------------------------||
|-------------------------------|---------------------------------||
|---------------------2-(2)-2-2-|---------------------------------||
|---------------2-(2)-2-(2)-2-2-|--5p=0-7p0--------------2--------||
|---------------0-(0)-0-(0)-----|------------5h===7p5p0--0--------||
|--2--0-3-(3)-0-----------------|---------------------------------||
|
|                                            \1.5____________/
|-------------------------------|---------------------------------||
|-------------------------------|---------------------------------||
|-(2)---------------------------|-(2)-------(2)---------(2)-(2)---||
|-(2)---------------------------|-(2)-------(2)---------(2)-(2)---||
|-(0)---------------------------|-(0)-------(0)---------(0)-(0)---||
|-------------------------------|---------------------------------||


  &&
  Gtr I
  PM--------------------------------------------------------------|
|---------------------------------|---------------------------------|
|---------------------------------|---------------------------------|
|---------------------------------|---------------------------------|
|---------------------------------|---------------------------------|
|---------------------------------|---------------------------------|
|-3-3-3-3-3-3-3-3-2-2-2-2-2-2-2-2-|-0-0-0-0-0-0-0-0-2-2-2-2-2-2-2-2-|


|-------------------------|-------------------|
|-------------------------|-3-------------5---|
|-------------------------|-0-0-(0)-------2---|
|-2---2-(2)---2-(2)---2S5-|---4-(4)-2-(2)-----|
|-0---0-(0)---0-(0)---0---|---------0-(0)-----|
|---3-------3-------3-----|-------------------|


  PM--------------------------------------------------------------|
|---------------------------------|---------------------------------|
|---------------------------------|---------------------------------|
|---------------------------------|---------------------------------|
|---------------------------------|---------------------------------|
|---------------------------------|---------------------------------|
|-3-3-3-3-3-3-3-3-2-2-2-2-2-2-2-2-|-0-0-0-0-0-0-0-0-2-2-2-2-2-2-2-2-|


|-------------------------|--------------------------------------------------------------||
|-------------------------|--------------------------------------------------------------||
|-------------------------|--------------------------------------------------------------||
|-2---2-(2)---2-(2)---2---|--------------------------------------------------------------||
|-0---0-(0)---0-(0)---0-0-|-<12>-<12>-<12>-<7>-<7>-<7>-<5>-<5>-<5>-<4>-<4>-<4>-<2>-x/----||
|---3-------3-------3-----|--------------------------------------------------------------||


||--------------------------------|---------------------------------------|
||o-------------------------------|---------------------------------------|
||--------------------------------|---------------------------------------|
||--11---12-(12)---14-(14)-17--14-|-16---12-(12)-14-14-(14)-14-(14)-14-14-|
||o--0-0--0--(0)-0--0--(0)--0---0-|--0-0--0--(0)--0--0--(0)--0--(0)--0--0-|
||--------------------------------|---------------------------------------|


  PM--------|
|-----------------------------|----------------------------------|
|-----------------------------|----------------------------------|
|-------------------2-(2)-2-2-|-------------------2-(2)----------|
|-------------2-(2)-2-(2)-2-2-|-5p0-7p0-----------2-(2)----------|
|-------------0-(0)-0-(0)-----|---------5h7p5p0-0-------0-0-0----|
|-2-0-3-(3)-0-----------------|----------------------------------|


|-------------------------------|------------------------------------|
|-------------------------------|------------------------------------|
|-------------------------------|------------------------------------|
|-11---12-(12)---14-(14)-17--14-|-<19>-12-(12)---11-(11)-------14-14-|
|--0-0--0--(0)-0--0--(0)--0---0-|-------0--(0)-0--0--(0)-0-(0)--0--0-|
|-------------------------------|------------------------------------|


                               1.
  PM--------|
|-----------------------------|---------------------------------||
|-----------------------------|--------------------------------o||
|-------------------2-(2)-2-2-|-------------------2-(2)---------||
|-------------2-(2)-2-(2)-2-2-|-5p0-7p0-----------2-(2)---------||
|-------------0-(0)-0-(0)-----|---------5h7p5p0-0-0-(0)-0-0-0--o||
|-2-0-3-(3)-0-----------------|---------------------------------||


  2.
|---------------------------|
|---------------------------|
|-------------------2-------|
|-5p0-7p0---------2-2--(2)/-|
|---------5h7p5p0-0-0-------|
|---------------------------|


|--------------------------|---------------------------*|
|--------------------------|---------------------------*|
|--------------------------|--------------------2-2-2--*|
|-11-12-(12)-14-(14)--/17--|-16-12-(12)-14-(14)-2-2-2--*|
|--0--0--(0)--0--(0)----0--|--0--0--(0)--0--(0)-0-0-0--*|
|--------------------------|---------------------------*|



***************************************************************************************
* Generated using Power Tab Editor by Brad Larsen - http://powertab.guitarnetwork.org *
***************************************************************************************
comments
We did not receive enough feedback on this tab! Please rate:
print report bad tab
1 2 3 4 5
I want to post or [tab]
guest
You may want to rate the tab now too:
select rating
Please do not post tabs as comments. Select "correction" instead!