Oops, an error
Loading. Please wait.

Chrushing Day Tab

3,249 views 1 this week
no commentswrite comment
1 2 3 4 5
accurate
x 1
add to favorites launch autoscroll
font size
0
reset
Autoscroll
+/-
esc
set tempo
stop
Difficulty
intermediate
WARNING: You are trying to view
                                    content from Ultimate-Guitar.com
                                    in an unauthorized application,
                                    which is prohibited.

                                    Please use an official Ultimate
                                    Guitar Tabs application for iPhone,
                                    iPad or Android to access legitimate
                                    chords, guitar, bass, and drum tabs
                                    from Ultimate-Guitar.com database.

                                    Type "ultimate guitar tabs" in Apple
                                    App Store's or Android Market's
                                    search to find the application.
Crushing day
By Joe Satriani 

E|--------------------|--------------------|
B|--------------------|--------------------|
G|--------------------|--------------------|
D|-5---------5--------|-5--------5---------|
A|-3--3-3--3--3-3-3-3-|-3--3-3--3--3-3-3-3-|
E|--------------------|--------------------|

E|--------------------|--------------------|
B|--------------------|--------------------|
G|--------------------|--------------------|
D|-4--------4---------|-4--------4---------|
A|-3--3-3--3--3-3-3-3-|-3--3-3--3--3-3-3-3-|
E|--------------------|--------------------|

E|---------------------|--------------------|
B|---------------------|--------------------|
G|---------------------|--------------------|
D|-5---------5---------|-5--------5---------|
A|-3--3-3--3--3-3-3-3--|-3--3-3--3--3-3-3-3-|
E|---------------------|--------------------|

E|--------------------|----------------------|---------------|
B|--------------------|----------------------|---------------|
G|--------------------|----------------------|---------------|
D|-4--------4---------|-4--------4----------4|---------------|
A|-3--3-3--3--3-3-3-3-|-3--3-3--3--3-3-3-3--3|---------0-1-2-|
E|--------------------|----------------------|-0-1-2-3-------|

E|----------------|------------------------|
B|---13--16-------|---13---16--------------|
G|-12-------14~~/-|-12--------14~/-12--11--|
D|----------------|------------------------|
A|----------------|------------------------|
E|----------------|------------------------|

E|----------------------------------|--------15--------------------------|
B|----13----16---------------17--15-|-13--15-----18--16--15--------------|
G|-12-----------14~~/-14--15--------|------------------------17b--17rb~--|
D|----------------------------------|------------------------------------|
A|----------------------------------|------------------------------------|
E|----------------------------------|------------------------------------|

E|----------------|--------17b--17rb--15-----------------------|
B|-------17--15---|-13--15---------------18--16b--16rb--16-----|
G|-14--15---------|--------------------------------------------|
D|--------------------------|----------------------------------|
A|--------------------------|----------------------------------|
E|--------------------------|----------------------------------|

E|---------------------|--------------------|
B|---------------------|--------------------|
G|---------------------|--------------------|
D|-5---------5---------|-5--------5---------|
A|-3--3-3--3--3-3-3-3--|-3--3-3--3--3-3-3-3-|
E|---------------------|--------------------|

E|------------------------|----------------|
B|------------------------|----------------|
G|------------------------|----------------|
D|-4--------4---------|-4--------4---------|
A|-3--3-3--3--3-3-3-3-|-3--3-3--3--3-3-3-3-|
E|--------------------|--------------------|

E|--------------------|--------------------|
B|--------------------|--------------------|
G|--------------------|--------------------|
D|-5---------5--------|-5--------5---------|
A|-3--3-3--3--3-3-3-3-|-3--3-3--3--3-3-3-3-|
E|--------------------|--------------------|

E|--------------------|----------------------|---------------|
B|--------------------|----------------------|---------------|
G|--------------------|----------------------|---------------|
D|-4--------4---------|-4--------4----------4|---------------|
A|-3--3-3--3--3-3-3-3-|-3--3-3--3--3-3-3-3--3|---------0-1-2-|
E|--------------------|----------------------|-0-1-2-3-------|

E|--------------------|-------------------------------|
B|----13----16--------|----13----16-------------------|
G|-12----------/14\~~-|-12------------14~/---12--\11/-|
D|--------------------|-------------------------------|
A|--------------------|-------------------------------|
E|--------------------|-------------------------------|

E|-----------------------------------------|------15----------------------|
B|----13--16------------------------17--15-|-13-15--18--16--15------------|
G|-12--------14~~/--14b-14b-14rb-15--------|-------------------17b--17rb~-|
D|-----------------------------------------|------------------------------|
A|-----------------------------------------|------------------------------|
E|-----------------------------------------|------------------------------|

E|--------------|--------17b--17rb--15-----------------------|
B|-------17--15-|-13--15---------------18--16b--16rb--16-----|
G|-14--15-------|--------------------------------------------|
D|--------------|--------------------------------------------|
A|--------------|--------------------------------------------|
E|--------------|--------------------------------------------|

E|---19--22b-22rb--20--19--19--17---------------|-19--22b-22rb--20-19-19-17-|
B|-17-----------------------------19b--19rb--17-|---------------------------|
G|----------------------------------------------|---------------------------|
D|----------------------------------------------|---------------------------|
A|----------------------------------------------|---------------------------|
E|----------------------------------------------|---------------------------|

E|-15--17-15--17b--17b--17rb--15------------|
B|-------------------------------18--16--15-|
G|------------------------------------------|
D|------------------------------------------|
A|------------------------------------------|
E|------------------------------------------|

E|--------------------|--------------------|
B|--------------------|--------------------|
G|--------------------|--------------------|
D|-5---------5--------|-5--------5---------|
A|-3--3-3--3--3-3-3-3-|-3--3-3--3--3-3-3-3-|
E|--------------------|--------------------|

E|--------------------|--------------------|
B|--------------------|--------------------|
G|--------------------|--------------------|
D|-4--------4---------|-4--------4---------|
A|-3--3-3--3--3-3-3-3-|-3--3-3--3--3-3-3-3-|
E|--------------------|--------------------|

E|--------------------|--------------------|
B|--------------------|--------------------|
G|--------------------|--------------------|
D|-5---------5--------|-5--------5---------|
A|-3--3-3--3--3-3-3-3-|-3--3-3--3--3-3-3-3-|
E|--------------------|--------------------|

E|--------------------|----------------------|---------------|
B|--------------------|----------------------|---------------|
G|--------------------|----------------------|---------------|
D|-4--------4---------|-4--------4----------4|---------------|
A|-3--3-3--3--3-3-3-3-|-3--3-3--3--3-3-3-3--3|---------0-1-2-|
E|--------------------|----------------------|-0-1-2-3-------|

E|---------------------------------------------|-----------------------8b-|
B|---------------------------------------------|--------------------------|
G|---------0-3p-0--5p-0--3p-0------------------|--0-3p-0--5p-0--3p-0------|
D|-0-h5--5--------------------5p-0--3h-5--0-h3-|-5------------------------|
A|---------------------------------------------|--------------------------|
E|---------------------------------------------|--------------------------|

E|-------------------|---------------------------------------------|
B|---------3-h6--6-8~|---------------------------------------------|
G|---0-h5------------|---------0-3p-0--5p-0--3p-0------------------|
D|-5-----------------|-0-h3-h5--------------------5p-0--3-h5--0-h3-|
A|-------------------|---------------------------------------------|
E|-------------------|---------------------------------------------|

E|-----------------------------|-------------------------------------------|
B|-----------------------------|-------------------------------------------|
G|--0-3p-0-5p-0--0-3p-0---3b-3-|---------0-3p-0-5p-0-3p-0--0-3p-0-5p-0-0-5-|
D|-5------------2-------2------|-0-h3-h5-----------------3p----------------|
A|-----------------------------|-------------------------------------------|
E|-----------------------------|-------------------------------------------|

E|--------------------------------------------------------------------------|
B|--------------------------------------------------------------------------|
G|----------12-15-12--17-12--15-12--12----------------12-15-12--17-12--15-12|
D|-12-15-17-----------------------17--15-17--12-15--17----------------------|
A|--------------------------------------------------------------------------|
E|--------------------------------------------------------------------------|


E|---------------------------------------------|-------------------------15b|
B|---------------------------------------------|--------------14-15-18-18---|
G|----------12-15-12--17-12--15-12-------------|---------12-15--------------|
D|-12-15-17-----------------------17-12--15-17-|-12-15-17-------------------|
A|---------------------------------------------|----------------------------|
E|---------------------------------------------|----------------------------|

E|--------------------------------------------------|
B|--------------------------------------------------|
G|-12--------15-12--17-12--15-12--------------------|
D|---15-16-17-------------------17-12--15-17--12-15-|
A|--------------------------------------------------|
E|--------------------------------------------------|

E|-------------------------------------------|
B|-------------------------------------------|
G|---12--15-12--17-12-----15-12-----15b--15~-|
D|-17----------------14-12-----14-12---------|
A|-------------------------------------------|
E|-------------------------------------------|

E|------------------------------------------------------------|
B|------------------------------------------------------------|
G|----------12-15-12--17-12--15-12------15-12--17--12--12--12-|
D|-12-15-17-----------------------15-12-----------------------|
A|------------------------------------------------------------|
E|------------------------------------------------------------|

E|--------------------|--------------------|
B|--------------------|--------------------|
G|--------------------|--------------------|
D|-5---------5--------|-5--------5---------|
A|-3--3-3--3--3-3-3-3-|-3--3-3--3--3-3-3-3-|
E|--------------------|--------------------|

E|--------------------|--------------------|
B|--------------------|--------------------|
G|--------------------|--------------------|
D|-4--------4---------|-4--------4---------|
A|-3--3-3--3--3-3-3-3-|-3--3-3--3--3-3-3-3-|
E|--------------------|--------------------|

E|--------------------|--------------------|
B|--------------------|--------------------|
G|--------------------|--------------------|
D|-5---------5--------|-5--------5---------|
A|-3--3-3--3--3-3-3-3-|-3--3-3--3--3-3-3-3-|
E|--------------------|--------------------|

E|--------------------|----------------------|---------------|
B|--------------------|----------------------|---------------|
G|--------------------|----------------------|---------------|
D|-4--------4---------|-4--------4----------4|---------------|
A|-3--3-3--3--3-3-3-3-|-3--3-3--3--3-3-3-3--3|---------0-1-2-|
E|--------------------|----------------------|-0-1-2-3-------|

E|--------------|----------------|----------------|
B|--------------|----------------|----------------|
G|-5------------|----5------3b-5-|----3b----3b-3b-|
D|---5-----3b-5-|-5-----5--------|-5-----5--------|
A|-----5--------|----------------|----------------|
E|--------------|----------------|----------------|

E|----------------|---------------|---------------|
B|----------------|---------------|---------------|
G|----3b-----3--3-|----5-----3b-5-|----5-----3b-5-|
D|-5-----5--------|-5-----5-------|-5-----5-------|
A|----------------|---------------|---------------|
E|----------------|---------------|---------------|

E|---------------------|----------------|
B|---------------------|----------------|
G|---------------------|----------------|
D|----3b----3--3--3b---|-3b---3b--3---X-|
A|-5-----5-----------5-|----0---------X-|
E|---------------------|----------------|

E|---------------10-15p-10-8------8-13p-8------10--15p-10------------|
B|-15---------12----------------10-----------12----------------------|
G|---12---12------------------12-----------14---------------0-h2/-3p-|
D|-----14---------------------------------------------------0-h2/-3p-|
A|-------------------------------------------------------------------|
E|-------------------------------------------------------------------|

E|----------15-10-8------8-13p-8-----10-15p-10-|
B|--------------------10-----------12----------|
G|-5p-3p-0---------12------------14------------|
D|-5p-3p-0-------------------------------------|
A|---------------------------------------------|
E|---------------------------------------------|

E|-20p-17----------------------------------------------|
B|-------18--------------------------------------------|
G|---------19-17p-14--------------------------------12-|
D|-------------------15p-12--------------12h-14p-15----|
A|--------------------------13p-12-13p-15--------------|
E|-----------------------------------------------------|

E|---------------13-17p-13-15~-------|
B|------13-15-17---------------0---0-|
G|-14-15-------------------------0---|
D|-----------------------------------|
A|-----------------------------------|
E|-----------------------------------|

E|----------10-15p-10-8--------8-13p-8---------10-15p-10-----------|
B|-------12-----------------10---------10---10---------------------|
G|---12------------------10--------------12---------------0-h2/-3p-|
D|-14-----------------------------------------------------0-h2/-3p-|
A|-----------------------------------------------------------------|
E|-----------------------------------------------------------------|

E|---------15p-10-8-------8-13p-8--------10-15p-10-|
B|---------------------10--------10---10-----------|
G|-5p-3p-0----------12-------------12--------------|
D|-5p-3p-0-----------------------------------------|
A|-------------------------------------------------|
E|-------------------------------------------------|

E|-20p-17---------------------------------------------|
B|-------18-------------------------------------------|
G|---------19-17p-14-------------------------------12-|
D|------------------15p-12-------------12h-14p-15-----|
A|------------------------13p-12-13p-15---------------|
E|----------------------------------------------------|

E|---------------------13-17p-13-/-20~~-|
B|--------h13-h15-h17-------------------|
G|-14-h15-------------------------------|
D|--------------------------------------|
A|--------------------------------------|
E|--------------------------------------|

E|-22p-15--22p-15-15--21p-15-15--20p-15--20p-15--21p-15-15-|
B|---------------------------------------------------------|
G|---------------------------------------------------------|
D|---------------------------------------------------------|
A|---------------------------------------------------------|
E|---------------------------------------------------------|

E|-22p-15--22p-15-15--21p-15-15--20p-15--20p-15--21p-15-15-|
B|---------------------------------------------------------|
G|---------------------------------------------------------|
D|---------------------------------------------------------|
A|---------------------------------------------------------|
E|---------------------------------------------------------|

E|-22p-15-15--21p-15-15--20P-15----20P-15---18P-15--------|
B|------------------------------18-------18--------18P-15-|
G|--------------------------------------------------------|
D|--------------------------------------------------------|
A|--------------------------------------------------------|
E|--------------------------------------------------------|

E|-18-20p-18-15-----18-20p-18-15---------------------|
B|-------------20-15------------20p-15-18--20p-18-15-|
G|---------------------------------------------------|
D|---------------------------------------------------|
A|---------------------------------------------------|
E|---------------------------------------------------|

E|-------------------------------------------------------|
B|----15-18-20p-18p-15----15-18-20p-18p-15--------20p-15-|
G|-18------------------18------------------18p-15--------|
D|-------------------------------------------------------|
A|-------------------------------------------------------|
E|-------------------------------------------------------|

E|---------------------------------------------------------|
B|-20p-19----18p-15--18p-15----20p-15--20p-15----18p-15-20-|
G|-------18-----------------18----------------17-----------|
D|---------------------------------------------------------|
A|---------------------------------------------------------|
E|---------------------------------------------------------|

E|-------------------------------------------------------|
B|-20p-15---18p-15--20--20p-15---18p-15----17p-15--------|
G|-------18-------------------18-------17---------18--18-|
D|-------------------------------------------------------|
A|-------------------------------------------------------|
E|-------------------------------------------------------|

E|----------------------------------|---3-3----3-3-----3-|
B|-------17p-15--------17-17--X-----|---3-3----3-3-----3-|
G|-14-17-------17p-15--17-17--X--5b-|-5-----5b------5b---|
D|----------------------------------|--------------------|
A|----------------------------------|--------------------|
E|----------------------------------|--------------------|

E|-3-3-----3-3--------|-13------12------10-------9-------|
B|-3-3-----3-3--------|----------------------------------|
G|-----5b------5b-14--|-----12------10-------9-----------|
D|--------------------|-------------------------------12-|
A|--------------------|----------------------------------|
E|--------------------|----------------------------------|

E|---------------------------|-15-----------15--------18----18-|
B|-------------------0---18b-|----15-18-18b----18p-15----------|
G|-10-12------------0--------|---------------------------------|
D|-10-12--10--10~------------|---------------------------------|
A|--------10--10~------------|---------------------------------|
E|---------------------------|---------------------------------|

E|-15----15----------------------|-18-15----------------------------|
B|---18----18p-15---15-----------|------18-15-----18-15-------------|
G|----------------18---18p-17-15-|-----------17-15-----17-15--------|
D|-------------------------------|---------------------------17p-15-|
A|-------------------------------|----------------------------------|
E|-------------------------------|----------------------------------|

E|---------------------------|
B|---------------------------|
G|-17-15---------------------|
D|-------17-15---------------|
A|-------------17-15-13~-----|
E|------------------------15-|

E|---------------------------------------------|
B|---------------------------------------------|
G|---------------------------------------------|
D|--------------------------------3-----3-5----|
A|-------3-----3-----3-5-6--3-5-6---5-6-----6--|
E|-3-5-6---5-6---5-6---------------------------|

E|-----------------------------------------------|
B|-----------------------------------------------|
G|----------------------5-----5-----5-7-8--5-7-8-|
D|-3-5-7--3-5-7--8-5-78---7-8---7-8--------------|
A|-----------------------------------------------|
E|-----------------------------------------------|

E|-------------------------------------------------------|
B|-6--------8---------10-------10-11---10-11-13-10-11-13-|
G|---7-8-10---8-10-12----10-12-------12------------------|
D|-------------------------------------------------------|
A|-------------------------------------------------------|
E|-------------------------------------------------------|

E|-------13-15-17-13-15-17-18-15-17--15------------------------------|
B|-15-16---------------------------18--16-18-15-16----15-------------|
G|-------------------------------------------------17----15-17-14-12-|
D|-------------------------------------------------------------------|
A|-------------------------------------------------------------------|
E|-------------------------------------------------------------------|

E|----15p-11---------------------------------------------------------|
B|-----------15p-11-----15-------------------------------------------|
G|-14--------------14-12--15-14-12-------14p-12----------------------|
D|---------------------------------13--12------13p-12----------------|
A|----------------------------------------------------13-12----------|
E|----------------------------------------------------------13-11-13-|

E|-15p-11-15p-11--17p-13----15p-11-15p-11--17--17p-13-----|
B|-----------------------11----------------------------13-|
G|--------------------------------------------------------|
D|--------------------------------------------------------|
A|--------------------------------------------------------|
E|--------------------------------------------------------|

E|-18p-15-18p-15---20p-17---18p-15-18p-15--20p-17----|
B|--------------18-------16--------------18-------16-|
G|---------------------------------------------------|
D|---------------------------------------------------|
A|---------------------------------------------------|
E|---------------------------------------------------|

E|-18p-15-18P-15---17p-13---15p-11-15p-11--15p-11-----|
B|--------------16--------15-------------11-------11/-|
G|----------------------------------------------------|
D|----------------------------------------------------|
A|----------------------------------------------------|
E|----------------------------------------------------|

E|-18-18-18-18b--17--17p-15---------------------|
B|-------------------------18-16p-15--------16b-|
G|-----------------------------------17---------|
D|--------------------------------------15------|
A|----------------------------------------------|
E|----------------------------------------------|

E|-13------13------13---------------15---13--------------------------|
B|---16-15b--16-15b--16-15-13-16-13---13---13----16b--16b-16~-15b-15-|
G|--------------------------------------------14---------------------|
D|-------------------------------------------------------------------|
A|-------------------------------------------------------------------|
E|-------------------------------------------------------------------|

E|--------------------|--------------------|
B|--------------------|--------------------|
G|--------------------|--------------------|
D|-5---------5--------|-5--------5---------|
A|-3--3-3--3--3-3-3-3-|-3--3-3--3--3-3-3-3-|
E|--------------------|--------------------|

E|--------------------|--------------------|
B|--------------------|--------------------|
G|--------------------|--------------------|
D|-4--------4---------|-4--------4---------|
A|-3--3-3--3--3-3-3-3-|-3--3-3--3--3-3-3-3-|
E|--------------------|--------------------|

E|--------------------|--------------------|
B|--------------------|--------------------|
G|--------------------|--------------------|
D|-5---------5--------|-5--------5---------|
A|-3--3-3--3--3-3-3-3-|-3--3-3--3--3-3-3-3-|
E|--------------------|--------------------|

E|--------------------|----------------------|---------------|
B|--------------------|----------------------|---------------|
G|--------------------|----------------------|---------------|
D|-4--------4---------|-4--------4----------4|---------------|
A|-3--3-3--3--3-3-3-3-|-3--3-3--3--3-3-3-3--3|---------0-1-2-|
E|--------------------|----------------------|-0-1-2-3-------|

E|----------------------|----------------------------|
B|-----13----16---------|----13---16-----------------|
G|-12------------/14\~~-|-12---------14~/--12--\11/--|
D|----------------------|----------------------------|
A|----------------------|----------------------------|
E|----------------------|----------------------------|

E|----------------------------------------|-------15-----------------------|
B|----13---16----------------------17--15-|-13--15---18--16--15------------|
G|-12---------14~~/-14b-14b-14rb-15-------|---------------------17b--17rb~-|
D|----------------------------------------|--------------------------------|
A|----------------------------------------|--------------------------------|
E|----------------------------------------|--------------------------------|

E|---------------|--------17b--17rb--15-------------------|
B|--------17--15-|-13--15---------------18--16b--16rb--16-|
G|-14--15--------|----------------------------------------|
D|---------------|----------------------------------------|
A|---------------|----------------------------------------|
E|---------------|----------------------------------------|

*
E|---19--22b-22rb--20--19--19--17---------------|-19--22b-22rb--20-19-19-17-|
B|-17-----------------------------19b--19rb--17-|---------------------------|
G|----------------------------------------------|---------------------------|
D|----------------------------------------------|---------------------------|
A|----------------------------------------------|---------------------------|
E|----------------------------------------------|---------------------------|

E|-15--17-15--17b--17b--17rb--15----------------|*
B|--------------------------------16b--16rb--15-| 
G|----------------------------------------------| 
D|----------------------------------------------|
A|----------------------------------------------|
E|----------------------------------------------|

*=x3 fade out the last phrase on the 4th time
comments
We did not receive enough feedback on this tab! Please rate:
print report bad tab
1 2 3 4 5
I want to post or [tab]
guest
You may want to rate the tab now too:
select rating
Please do not post tabs as comments. Select "correction" instead!