Oops, an error
Loading. Please wait.

Come On Baby Tab

ver1
ver1

Intro

Whole song

Interactive

More versions @911Tabs.com
21,674 views 27 this week
5 commentsread comments
1 2 3 4 5
excellent!
x 9
Autoscroll
+/-
esc
set tempo
stop
Contributor
Difficulty
advanced
Hey! There's an official Ultimate Guitar app which is ideal
for learning songs when you're away from computer. Get the app
WARNING: You are trying to view
                                    content from Ultimate-Guitar.com
                                    in an unauthorized application,
                                    which is prohibited.

                                    Please use an official Ultimate
                                    Guitar Tabs application for iPhone,
                                    iPad or Android to access legitimate
                                    chords, guitar, bass, and drum tabs
                                    from Ultimate-Guitar.com database.

                                    Type "ultimate guitar tabs" in Apple
                                    App Store's or Android Market's
                                    search to find the application.
-------------------------------------------------------------------------------
                             Come on Baby - Joe Satriani
-------------------------------------------------------------------------------
Tabbed by: el_paso

Tuning: standard

*Lead Guitar Parts*

Intro (0:28)

e|-----------------------------------------|
b|-----------------------------------------|
g|-----------------------------------------|
d|----4--6--6/8--4-----------4--6--6/8--6--|
a|-6----------------6-----6----------------|
e|-----------------------------------------|

e|----------------------------------------------|
b|----------------------------------------------|
g|----------------------------------------------|
d|----4--6--6/8--4--------3br-------------------|
a|-6----------------6----------6--4--6/9--9/11--|
e|----------------------------------------------|

e|------------------------------------------------------------|
b|------------------------------------------------------------|
g|-----11--13--13/15--\11------------------11h13--11h13--11---|
d|-13----------------------13------11--13---------------------|
a|------------------------------------------------------------|
e|------------------------------------------------------------|

e|------------------------------------------------------|
b|------------------------------------------------------|
g|------11--13--13/15--11----------10br-----------------|
d|-/13---------------------13------------13--11--11/13--|
a|------------------------------------------------------|
e|------------------------------------------------------|


(1:08)

e|------------------------------------------|
b|------------------------------------------|
g|-5h6--6----1/3--1-1------10-10--11p10--8--|
d|------------------------------------------|
a|------------------------------------------|
e|------------------------------------------|

e|------------------------------------------|
b|------------------------------------------|
g|-5h6--6----1/3--1-1------10--12h13-13-----|
d|------------------------------------------|
a|------------------------------------------|
e|------------------------------------------|

e|------------------------------------------|
b|------------------------------------------|
g|-5h6--6----1/3--1-1------10-10--11p10--8--|
d|------------------------------------------|
a|------------------------------------------|
e|------------------------------------------|

e|-------------------------|
b|-------------------------|
g|--5h6--6----1/3--1-1-----|
d|-------------------------|
a|-------------------------|
e|-------------------------|

(1:45)

e|----------------------------------------------------|
b|----------------------------------------------------|
g|-----11--13--11h13--11------------------------------|
d|-13---------------------11h13--11h13--11--13/16\13--|
a|----------------------------------------------------|
e|----------------------------------------------------|

e|----------------------------------------------------|
b|---------14--14h16--14------------------------------|
g|-13--15-----------------13h15--13-------------------|
d|-----------------------------------15b--15r--13-----|
a|----------------------------------------------------|
e|----------------------------------------------------|

Solo (2:08)

e|-----------------------------------------------------------------------------|
b|-------------11--------------------------------------------------------------|
g|-----11--13-----13-11-------11-----------------------------------------------|
d|-13-------------------13-11----13-11-13---11---------------------------------|
a|---------------------------------------------13p11/9-----11p9----9-11/13-11--|
e|--------------------------------------------------------------11-------------|

e|--------------------------------------------------------------------------------|
b|------------------------------------------------------------11----11------------|
g|------------------11/10~-----------10h11--------10-11-13~------13----13brp11----|
d|------11-13p11-13---------13----13-----------13------------------------------13-|
a|-11h13--------------------------------------------------------------------------|
e|--------------------------------------------------------------------------------|

e|-----------------------------------------------------11-----------------------|
b|-----11-14----------------------------------------------14p11-----------------|
g|-13b-------13b-rp11----13----11h13~--11-----------------------13brp11---------|
d|--------------------13----13------------13p11-------------------------13------|
a|------------------------------------------------------------------------------|
e|------------------------------------------------------------------------------|

e|--------------------------------------------11-----------|
b|-------------11-------11-------11-14-11-14b----11-14b~~~-|
g|-------11-13------13b----13b-----------------------------|
d|-11-13---------------------------------------------------|
a|---------------------------------------------------------|
e|---------------------------------------------------------|

e|--11--------------11--------------------------------------------|
b|-----11-14-----11----14p11--------------------------------------|
g|-----------13b-------------13brp11----13----11h13---11----------|
d|-----------------------------------13----13------------13p11----|
a|-------------------------------------------------------------13-|
e|----------------------------------------------------------------|

==fast====================================>
e|---------------------------------------------------------------------------------|
b|-14p11---------------------------------------------------------------------------|
g|-------13p11---13p11-------------------------------------------------------------|
d|---------------------13p11---13p11-----------------------------11----13----11h13-|
a|-----------------------------------13p11---------------9-11/13----13----13-------|
e|------------------------------------------14--11-9-11----------------------------|

e|------------------------------------------------11----|
b|--------------------------11----14----11-----11----11-|
g|--11----10----11----13-------13----13----13b----------|
d|-----13----13----13----13-----------------------------|
a|------------------------------------------------------|
e|------------------------------------------------------|

e|-----11----------11----------11----------11-----11-----11---16b~~-16b~-|
b|-14b----11---14b----11---14b----11---14b----14b----14b-----------------|
g|-----------------------------------------------------------------------|
d|-----------------------------------------------------------------------|
a|-----------------------------------------------------------------------|
e|-----------------------------------------------------------------------|

e|---14/16-14--11--14-11--11--------|
b|---------------11-----11---14b----|
g|----------------------------------|
d|----------------------------------|
a|----------------------------------|
e|----------------------------------|

e|-11--------------11-----------------------------------------------------------|
b|----14p11-----11----14p11-----------------------------------11-x-x-11-x-x-11~-|
g|----------13b-------------13brp11----13----11---------------11-x-x-11-x-x-11~-|
d|----------------------------------13----13----13p11h13--13--------------------|
a|------------------------------------------------------------------------------|
e|------------------------------------------------------------------------------|

e|------------------------11-----11-14b~~-|
b|---11-x-x------------11----14b----------|
g|---11-x-x-----11-13b--------------------|
d|----------13----------------------------|
a|----------------------------------------|
e|----------------------------------------|

e|-14~-11----11--------11----11-------11--------------11------------------------|
b|--------14----14b-------14----14b------14p11-----11----14p11------------------|
g|---------------------------------------------13b-------------13brp11----13----|
d|---------------------------------------------------------------------13----13-|
a|------------------------------------------------------------------------------|
e|------------------------------------------------------------------------------|

e|------11-11-11-11--14/16-16-16-16/18-18-18-18/21-21b~~--|
b|--14b---------------------------------------------------|
g|--------------------------------------------------------|
d|--------------------------------------------------------|
a|--------------------------------------------------------|
e|--------------------------------------------------------|

e|-21b-16r-14--11------------------------------11----11-11-11-11-|
b|----------------14p11--------------------14~----14-------------|
g|----------------------13p11----13p11-13b-----------------------|
d|----------------------------13---------------------------------|
a|---------------------------------------------------------------|
e|---------------------------------------------------------------|

e|-14p13p11-----------------------------------------|
b|----------14p11-----------------------------------|
g|----------------13p11----13----11-----------11\---|
d|----------------------13----13----13p11h13--------|
a|--------------------------------------------------|
e|--------------------------------------------------|

e|-----11----14p11---------------11---------------------------|
b|--------11-------14-11------11----14p11---------------------|
g|------------------------13b-------------13brp11-13p11-------|
d|-/13--------------------------------------------------13p11-|
a|------------------------------------------------------------|
e|------------------------------------------------------------|

e|------------------------------------------|
b|------------------------------------------|
g|------------------------------------------|
d|------------------------------------------|
a|-13p11/9-11p9-11/13---11p9h11-9~/11-11~~--|
e|------------------------------------------|


(3:22)

e|------------------------------------------|
b|------------------------------------------|
g|-5h6--6----1/3--1-1------10-10--11p10--8--|
d|------------------------------------------|
a|------------------------------------------|
e|------------------------------------------|

e|------------------------------------------|
b|------------------------------------------|
g|-5h6--6----1/3--1-1------10--12h13-13-----|
d|------------------------------------------|
a|------------------------------------------|
e|------------------------------------------|

e|------------------------------------------|
b|------------------------------------------|
g|-5h6--6----1/3--1-1------10-10--11p10--8--|
d|------------------------------------------|
a|------------------------------------------|
e|------------------------------------------|

e|-------------------------|
b|-------------------------|
g|--5h6--6----1/3--1-1-----|
d|-------------------------|
a|-------------------------|
e|-------------------------|

(3:56)

e|-----------------------------------------------------|
b|----------------------------------14-14----14--16b---|
g|------------------------13--13/15-------15-----------|
d|---------------11--13/15-----------------------------|
a|------11--11p13--------------------------------------|
e|-11p13-----------------------------------------------|

e|-------------------------------------------|
b|------16brp14-16b-14-14~------14--14-16b---|
g|---------------------------16--------------|
d|-------------------------------------------|
a|-------------------------------------------|
e|-------------------------------------------|

e|---------------------------------------|
b|-16b--14p12----------------------------|
g|------------13p11-------11----9--------|
d|------------------14p11----11---11-----|
a|---------------------------------------|
e|---------------------------------------|

e|-------------------------------------------------------------------|
b|-------------------------------14-----14-17b-14-17--14p12h14--16b--|
g|---------------------13--13/15----16b------------------------------|
d|-----------11--13/15-----------------------------------------------|
a|-----11p13---------------------------------------------------------|
e|-------------------------------------------------------------------|

e|-13--14-14---------------------14---|
b|-------------14b--14-14-------------|
g|-------------------------13brb------|
d|------------------------------------|
a|------------------------------------|
e|------------------------------------|

e|-----------------------------------------13--14-14--------------|
b|-14--------------------------------------------------14b--14-14-|
g|----13brp11-13p11-----------------------------------------------|
d|------------------13p11----11-13b-11----------------------------|
a|------------------------13--------------------------------------|
e|----------------------------------------------------------------|

e|-----9-9------17b-16-14----------------------------|
b|-12b-----12-------------17-14----------------------|
g|------------------------------17-13----------------|
d|------------------------------------16-14----------|
a|------------------------------------------16-16----|
e|---------------------------------------------------|

e|--13-14-14-------------------------|
b|-----------14b-14-14-------14-16b--|
g|-----------------------/16---------|
d|-----------------------------------|
a|-----------------------------------|
e|-----------------------------------|

e|-----14-----------------------------------------13-14-14--13b-12--9----9------|
b|-16b----16brp14-16p14-16brp14----14-14-16-14------------------------12---12b--|
g|------------------------------15----------------------------------------------|
d|------------------------------------------------------------------------------|
a|------------------------------------------------------------------------------|
e|------------------------------------------------------------------------------|

e|-9------------9---12b--9------------------------------------------13-14-14------------|
b|---12-9-----9---9--------12-9-----------------------------------------------14b-14-14-|
g|--------11b-------------------11-9----11----9-----------9-----------------------------|
d|-----------------------------------11----11---11--9h11-----11-------------------------|
a|--------------------------------------------------------------------------------------|
e|--------------------------------------------------------------------------------------|

e|-------9----------9-----9----12b-9---------------------------------------|
b|-----9----------9---12b---12-------12-9-----------------9----------------|
g|-11b--------11b-------------------------11-9-------9-11----11-9----------|
d|---------------------------------------------11-9---------------11-9-11--|
a|-------------------------------------------------------------------------|
e|-------------------------------------------------------------------------|

e|---------------------------------------------16---16---16---16---16-19-21~--|
b|------------------------------------------16b--16b--16b--16b--16b-----------|
g|-10-11-11---13/15-15-15/18-18-18-15-18--------------------------------------|
d|----------------------------------------------------------------------------|
a|----------------------------------------------------------------------------|
e|----------------------------------------------------------------------------|

e|-21b-21----19-16--------------------------------------|
b|-----------------19-17-------------17-----------------|
g|-----------------------18-16-18-18-----18-16----18----|
d|---------------------------------------------18-------|
a|------------------------------------------------------|
e|------------------------------------------------------|

e|-----14------------14-----14------14------14------14--------------------|
b|-16b----16b-----16b----16b-----16b-----16b-----16b--16b--14p12h14--16b--|
g|------------------------------------------------------------------------|
d|------------------------------------------------------------------------|
a|------------------------------------------------------------------------|
e|------------------------------------------------------------------------|

e|-------9-------9--------------------------------------------------|
b|---------12b-----12p9----9----9-----------------------------------|
g|----------------------11b---9---9-11brp9----11----9-----------9\--|
d|-/11-------------------------------------11----11---11p9h11-------|
a|------------------------------------------------------------------|
e|------------------------------------------------------------------|

e|-9------------9------------9-----9---12b-9---------------|
b|---12p9-----9---12p9-----9---12b---9-------12p9---12b----|
g|--------11b----------11b---------------------------------|
d|---------------------------------------------------------|
a|---------------------------------------------------------|
e|---------------------------------------------------------|

e|-13-14-14--------------------12b-9---------------------------------|
b|------------14/16--14-14-----------12-9----------------------------|
g|----------------------------------------11-9-----------------------|
d|------------11/13--11-11---------------------11-9------------------|
a|--------------------------------------------------11-9-8p9-8~\4~~~-|
e|-------------------------------------------------------------------|
comments
print report bad tab
5 comments total. Showing first comments.
+1 reply
toine wrote on May 21 2008, 01:19 pm

nice tab dude , love that song :)

+1 reply
agm_ultimatex wrote on September 7 2008, 09:26 am

agreed, great tab.

0 reply
therealtater wrote on March 6 2009, 08:35 pm

great tab man

I want to post or [tab]
guest
You may want to rate the tab now too:
select rating
Please do not post tabs as comments. Select "correction" instead!