Oops, an error
Loading. Please wait.

Cool 9 Tab

14,838 views 21 this week
1 commentread comment
1 2 3 4 5
excellent!
x 3
add to favorites launch autoscroll
font size
0
reset
Autoscroll
+/-
esc
set tempo
stop
Contributor
WARNING: You are trying to view
                                    content from Ultimate-Guitar.com
                                    in an unauthorized application,
                                    which is prohibited.

                                    Please use an official Ultimate
                                    Guitar Tabs application for iPhone,
                                    iPad or Android to access legitimate
                                    chords, guitar, bass, and drum tabs
                                    from Ultimate-Guitar.com database.

                                    Type "ultimate guitar tabs" in Apple
                                    App Store's or Android Market's
                                    search to find the application.
-------------------------------------------------------------------------------
                             Cool #9 - Joe Satriani
-------------------------------------------------------------------------------
Tabbed by: Grant Smith
Email: bulletproof__cupid@hotail.com

Tuning: Standard


Intro
  Q=96(16=s16)
 4/4
  Gtr I
  E E S S S  S  S S S S +S  S S S   E E S S S S H
|---------------------------------|------------------|
|---------------------------------|------------------|
|---2-2-2---(2)-2-2-2-2-(2)-2-2-2-|---2-2-2-2-2------|
|---1-1-1---(1)-1-1-1-1-(1)-1-1-1-|---1-1-1-1-1------|
|---------------------------------|------------------|
|---------------------------------|------------------|
|-Rhy Fig 1                            end Rhy Fig 1-|


Rhy Fig 1 x2.5

w/Rhy Fig 1 last bar  |-w/Rhy Fig 1 x4
                     $
  Gtr II
                                   ~~~~~~~~~~            PM
  H           Q  E e     E S S E   E     +Q         E    E
|--------------------||--------------------------------------|
|--------------------||o-------------------------------------|
|--------------------||--------------------------------------|
|--------------------||--------------------------------------|
|--------------------||o-6---8-----8-----(8)-----------------|
|------------------8-||----------------------------------8---|


             ~~~~~~~~~     PM|
  e e a  E   E   +E  E     E E
|------------------------------|
|------------------------------|
|------------------------------|
|------------------------------|
|-6-8-8s10---8---(8)p6b6.5-----|
|--------------------------8-6-|


  1.
  ~~~~~~~~~~~~~~~~~~~~~~~~~~~~~~~~~~~~~~~~~~~~~
                                 |3-|
  Q.       E     +E    Q         S +E       Q    +S  S E   Q  E e
|----------------------------------------|-------------------------||
|----------------------------------------|------------------------o||
|----------------------------------------|-------------------------||
|----------------------------------------|-------------------------||
|----------6-----(6)---8---------8-(8)---|-[8]---(8)s6------------o||
|-8--------------------------------------|----------------------8--||


  2.
     ~~~~~~~~~            ~~~~~
   S E.   +E     E       +Q          Q          H           Q  E e
|---------------------------------------------|--------------------||
|---------------------------------------------|--------------------||
|---------------------------------------------|--------------------||
|---------------------------------------------|--------------------||
|---------------------------------------------|--------------------||
|--6h8----(8)---[6]-----([6])-----------------|------------------8-||


w/Rhy Fig 1 x4
              ~~~~~~~~~~            PM
    E S S E   E     +Q         E    E
||--------------------------------------|
||o-------------------------------------|
||--------------------------------------|
||--------------------------------------|
||o-6---8-----8-----(8)-----------------|
||----------------------------------8---|


                                1.
             ~~~~~~~~~     PM|   ~~~~~~~~~~~~~~~~~~~~
  e e a  E   E   +E  E     E E   Q.       E     +E    E   +S   S   E
|------------------------------|----------------------------------------|
|------------------------------|----------------------------------------|
|------------------------------|----------------------------------------|
|------------------------------|----------------------------------------|
|-6-8-8s10---8---(8)p6b6.5-----|----------6-----(6)S==8---(8)-10-[10]---|
|--------------------------8-6-|-8--------------------------------------|


     ~~~~~~~~~~~~~~~~~~~~~       PM
    +E     Q        +E      Q  E E
|-----------------------------------||
|----------------------------------o||
|-----------------------------------||
|-----------------------------------||
|-([10])-[10]-----([10])\----------o||
|--------------------------------8--||


  2.
                                                      To Coda
   ~~~~~~~~~~~~~~~~~~~~~~~
   Q.        E       +Q.              E     W
|-----------------------------------------|-------------------||
|-----------------------------------------|-------------------||
|-----------------------------------------|-------------------||
|-----------------------------------------|-------------------||
|-----------------------------------------|-------------------||
|--8--------[8]-----([8])-----------------|-------------------||


w/Rhy Fig 1 x4
     W                                 E.   S +E    E   +Q.   S S
||--^1-------------------------------|-1--------------------------|
||o-^1-------------------------------|------1-(1)-----------------|
||--^3-------------------------------|--------------3---(3)-------|
||--^1-------------------------------|------------------------1-1-|
||o-^3-------------------------------|------------------------3-3-|
||-----------------------------------|----------------------------|


  W                                 W
|---------------------------------|-------------------||
|---------------------------------|------------------o||
|---------------------------------|-------------------||
|---------------------------------|-------------------||
|---------------------------------|------------------o||
|---------------------------------|-------------------||

w/Rhy Fig 1 x4
  E a  E a  E   T  T  T   T T  T  T T E    Q
|---8h10-8h10p==8h10p=8-----8-----------------------|
|------------------------11---11p10p8---------------|
|---------------------------------------------------|
|---------------------------------------------------|
|---------------------------------------------------|
|---------------------------------------------------|

         |-3-|
  S T T  T T T  S T T  T T T T  T T  T T T T e E T T  T T
|-------10-6h8h10p8p6h10-6h8p6-----------------------------|
|---6h8------------------------10p6-10p8p6---8---6h8h10p8p=|
|------------------------------------------8---------------|
|----------------------------------------------------------|
|----------------------------------------------------------|
|----------------------------------------------------------|


               |----5-----|                                     |--3--|  |---3---|
  S T T  T T S T T  T   T T  T T  T   T T  T T  T T T  T T  S   T  T  T  S  S    S
|--------------------------------------------------------------------10-14-10-------|
|-6-6h8h10p8p6-6h8h10p==8p6-------------8h10p8--------------------11------------11--|
|---------------------------10p7h=8h=10--------10-7h8h10p8-----12-------------------|
|-----------------------------------------------------------------------------------|
|-----------------------------------------------------------------------------------|
|-----------------------------------------------------------------------------------|


     |-3--|               |----5----|           |-3-|
   S T  T T +T  T T T E   T T T   T T e E S a S S S S
|----6h10p6-(6)---------------------------------------|
|---------------9-------------------------------------|
|-12--------------7-----------------------5-----5p3-5-|
|-------------------8-----------------------2s3-----5-|
|---------------------6---8p6h8p==6s5h6---------------|
|-----------------------------------------------------|


   |-3--|                         |----5----|  |----5-----|
  +S  S S E +S  S T T  T  T S T T T T T   T T  T  T T   T T T T T T
|--------------------------------------------------------------------|
|--------------------------------------------------------------------|
|-(5)-3-2-2-(2)h3-2h3p=2----2----------------------------------------|
|-(5)---------------------5---5p3p1h3h5p==3p1-----1h3h==5p3p1---1h3--|
|----------------------------------------------5--------------5------|
|--------------------------------------------------------------------|


                            |-3-| |---5---|
  +T  T T T T T T T S S E   S S S T T T T T T T  T T T  T T  T
|--------------------------------------------------------------|
|--------------------------------------------------------------|
|--------------------------------------------------------------|
|-(3)p1--------------------------------------------7h8h10p8h10-|
|-------5p1h3h5p3p1---------------5h6h8p6p5h6h8s10-------------|
|-------------------3p1-----3s5h6------------------------------|


                   |-3--| |----3----|    |-------5--------|
  Q      +S   E    T  T T E    E    E    S  S    S   S    S
|-----------------------8-8---10---------8------11---8---10-|
|---------------------8------------11-------8---------------|
|-7b8====(7)r------x----------------------------------------|
|-----------------------------------------------------------|
|-----------------------------------------------------------|
|-----------------------------------------------------------|


                               ~~~~~~~
             |-----3-----|                      |--3--|
   S S S  S  S     +S    S  S  S  +E.  +E   E   T  T  T
|----8-----------------------------------------------15---|
|-11---8-11---------------------------------------16------|
|-----------10b11r(10)p==8-10-10-(10)-(10)/----17---------|
|---------------------------------------------------------|
|---------------------------------------------------------|
|-------------------------------------------x/------------|


   |3-|    |--3--|  |3-|    |--3--|  |3-|    |--3--|  |3-|    |--3--|
   S  E    S  S  S  S  E    S  S  S  S  E    S  S  S  S  E    S  S  S
|-20p15\--------15-20p15\--------15-20p15\--------15-20p15\--------15-|
|------------16---------------16---------------16---------------16----|
|--------/17--------------/17--------------/17--------------/17-------|
|---------------------------------------------------------------------|
|---------------------------------------------------------------------|
|---------------------------------------------------------------------|


   |3-|    |--3--|  |3-|    |--3--|  |3-|    |--3--|  |3-|
   S  E    S  S  S  S  E    S  S  S  S  E    S  S  S  S  E E
|-20p15\--------15-20p15\--------15-20p15\--------15-20p15----|
|------------16---------------16---------------16-------------|
|--------/17--------------/17--------------/17----------------|
|----------------------------------------------------------x/-|
|-------------------------------------------------------------|
|-------------------------------------------------------------|


   |--------7--------|  |---------7---------|     |--3--|
   S  S  S  S  S  S  S  S  S  S  +S   S  S  S  S  T  T  T  T  T  T  T  T  T  S  T  T  T  T
|-20p17-21-------20-------20p16-(16)----------16S14-------13-------------------12-17p13-----|
|----------17----------16------------------16-------12----------14----12----------------15--|
|-------------19---------------------19-17-------------14----15----14----14p13--------------|
|-------------------19----------------------------------------------------------------------|
|-------------------------------------------------------------------------------------------|
|-------------------------------------------------------------------------------------------|


   |--------7--------| |-----7-----| |-3--|
   S  S  S  S  S  S  S S S S S S S S E E  E   Q
|--------------------------------------------11b13===||
|-11-----------------8-------------------------------||
|-------11-------------6h8----------------0/---------||
|----13----13-11h13\---------5------------0/---------||
|--------------------------4-----------0/------------||
|------------------------------0-5p0-5-0/------------||

w/Rhy Fig 1 xx8
                  ~~~~~~~~~~~~~~~
   +E       +E    Q          +E    S S  S      S S  S
|-(11)b14==(11)r-11---------(11)---8---11b11.5-8---11b11.5-|
|------------------------------------8-----------8---------|
|----------------------------------------------------------|
|----------------------------------------------------------|
|----------------------------------------------------------|
|----------------------------------------------------------|


  S S  S      S S  S      S  S      +S   S S  S      +Q
|-8---11b11.5-8---11b11.5-8--------------8--------------------|
|---8-----------8-----------11b13==(11)r---8-11b12==(11)b13===|
|-------------------------------------------------------------|
|-------------------------------------------------------------|
|-------------------------------------------------------------|
|-------------------------------------------------------------|


           ~~~~~~~~~~~
                   |----3----| |--3---|              |---3---|
   +Q     +E      +S  S      S S  S   S +T   T T  T  S  S    S     S     +T  T
|---------------------8--------8------8-(8)---------11--8----------------------|
|-(11)---(11)r---(11)-------11---11---------11p8-11----------------------------|
|-----------------------------------------------------------10b12-10b12r(10)p8-|
|------------------------------------------------------------------------------|
|------------------------------------------------------------------------------|
|------------------------------------------------------------------------------|


   |--------3--------| |--3---|
   S S  S     +S  S  S S  S   S  E   E  Q       +E
|----------------------------------------------------|
|----------------------------------------------------|
|------10b12r(10)p8--------------------10b12===(10)r-|
|-10p8--------------10p8-----------------------------|
|------------------------10p==8----------------------|
|-------------------------------11-------------------|


                                    |----3----|              |------3------|
   S  E       S  E       S  S      +S    S    S     S  S     S   S        +S   +T  T  T T
|-------------------------------------------------------------------------------------------|
|-11---------11---------11--------------11---------11-------11------------------------------|
|----10b12------10b12------10b12==(10)r------10b12----10b12-----10b12====(10)r(10)p8--------|
|------------------------------------------------------------------------------------10p8---|
|-------------------------------------------------------------------------------------------|
|-------------------------------------------------------------------------------------------|


   S     +T  T  T T  S     +T  T  T T  S     +T  T  T T  T T  T T  T T  S     +T  T  T T  S
|-----------------------------------------------------------------------------------------------|
|----------------------------------------------------------8------------------------------------|
|-10b12r(10)p8------10b12r(10)p8------10b12r(10)p8-10p8h10---10p8----8-10b11r(10)p8------10b11r=|
|--------------10p8--------------10p8-----------------------------10----------------10p8--------|
|-----------------------------------------------------------------------------------------------|
|-----------------------------------------------------------------------------------------------|


    |--3--|            |---3----|  |----3-----|
   +S  S  S a  S    S  S    S   S  S    S     S  T T  T T  T T  T T  T  T  S    T T  T  T
|-------------------8-----------8-------------8---------8---------8-------------8--------------|
|---------------------------8-----------8-------11p8------11p8------11p=8-------8-8-11---------|
|-(10)p8-10-8h10b12---10b12-------10b12--------------10--------10---------10b12--------10b12r==|
|----------------------------------------------------------------------------------------------|
|----------------------------------------------------------------------------------------------|
|----------------------------------------------------------------------------------------------|


   +S  S  T T  T T S E.      E E  E E
|-------------------------------------|
|-------------------------------------|
|-(10)p8-10-8-------------------------|
|-------------10S7S9------------------|
|---------------------------/x-0/-0-0-|
|--------------------x/-----/x-0/-0-0-|



   Q.        +E      Q        E     S  +S
|-20--------(20)-------------------18-(18)--|
|-------------------------------------------|
|-------------------------------------------|
|-------------------------------------------|
|-------------------------------------------|
|-------------------------------------------|


   +E   S  +S   +E     S  +S   +E   S  +S   +E   S  +S
|-(18)-17-(17)-(17)---15-(15)-(15)-13-(13)-(13)-11-(11)s|
|-------------------------------------------------------|
|-------------------------------------------------------|
|-------------------------------------------------------|
|-------------------------------------------------------|
|-------------------------------------------------------|


                                                  ~~
                                |----3----|
   Q    E    E      +Q          E    E   +E       H           Q  S  S  E
|-10h==11---10-----(10)------------------------|--------------------------|
|----------------------------------------------|--------------------------|
|-----------------------------\10p===8---(8)s==|=10----------------12-12--|
|----------------------------------------------|--------------------------|
|----------------------------------------------|--------------------------|
|----------------------------------------------|--------------------------|


                    |--3--|                   |-3--|
   +E   S  S  S  S  T  T  T  S  E    E    +S  T  T T S S
|--------------------------------------------------------|
|--------------------------------------------------------|
|-(12)-12-12p10h12-10h12p10s=7--8s==10---(10)-8h10p8s7-8p|
|--------------------------------------------------------|
|--------------------------------------------------------|
|--------------------------------------------------------|


  |--3--|   |---3---|       |-3-|   |-3-|   |-3-|
  E E   E a E   E   E   +S  T T T E T T T S T T T S
|-----------------------------------------------------|
|-----------------------------------------------------|
|-7s5s==3-3s5s==3s==2---(2)h3p2p0h2h3p2p0h2h3p2p0h2---|
|-----------------------------------------------------|
|-----------------------------------------------------|
|-----------------------------------------------------|


                                         \0.5        \0.5________|
  +T  T T T S S +S  S T  T  T  T  T T T  T     +T  T S      T  T S S  T  T
|--------------------------------------------------------------------------|
|--------------------------------------------------------------------------|
|-(2)h3p2p0----------------------10-7-9------------7--------5------4s14p12-|
|-----------2s7-(7)---8-10--7--8--------10----(10)---8---------7-7---------|
|-------------------0------------------------------------------------------|
|--------------------------------------------------------------------------|


                                                             TP
                                           |--3--|  |--3--|
   T  T  S      +T    T  T  T  T  T  T  T  T  T  T  T  T  T  H
|-----------------------11-10-13-12-15-15-15-------11-------11/----|
|-------13b15==(13)r-13----------------------15-15----13-13--------|
|-15-12------------------------------------------------------------|
|------------------------------------------------------------------|
|------------------------------------------------------------------|
|------------------------------------------------------------------|


   ~~~
   H     H      W          H    Q  S  S   S   S
|-22\---------|----------|----------------------|
|-------------|----------|--------------(13)----|
|-------------|----------|-----------12------12-|
|-------------|----------|----------------------|
|-------------|----------|----------------------|
|-------------|----------|----------------------|


   ~~~
             |---3----|  |--3--|
   E.  S Q   e     e  e  e  e  e
|-----11----13b15-13-11-13-11-13-|
|-13-----------------------------|
|--------------------------------|
|--------------------------------|
|--------------------------------|
|--------------------------------|


         ~~~~~
   E     Q.     H       H      E  S      +S   +S   E S
|-13b15-13b15--------|--------18-----------------------|
|--------------------|-----------18pb19r(18)-(18)-16---|
|--------------------|---------------------------------|
|--------------------|---------------------------------|
|--------------------|---------------------------------|
|--------------------|---------------------------------|
|
|  W                   +W
|-^3-----------------|-(3)-----------------------------|
|-^4-----------------|-(4)-----------------------------|
|-^3-----------------|-(3)-----------------------------|
|-^5-----------------|-(5)-----------------------------|
|-^3-----------------|-(3)-----------------------------|
|-^3-----------------|-(3)-----------------------------|


           ~~~~~~~
                          |--3--|
   S S  S  S  +E  E Q  E  S  S  S    q   S  S        +S   S  S   S  S  S  S  S S  S
|---------------------------------|-------------------------------------------------|
|-18-6------------x---------------|-------------------------------------------------|
|------17-17-(17)--------------15-|-17----------------------------------------------|
|------------------------15h17----|--------13pb15r==(13)----13-----13-15p13---------|
|---------------------------------|----------------------15-----15----------15---15-|
|---------------------------------|-------------------------------------------------|
|
|  W                                 Q.           a   E      Q.                E
|---------------------------------|-------------------------------------------------|
|---------------------------------|-^4----------------------------------------------|
|-^5------------------------------|-^4----------------------------------------------|
|-^6------------------------------|-^4----------------------------------------------|
|-^6------------------------------|-^6-----------------------5----------------------|
|-^4------------------------------|-^4------------1s==3------------------------3----|


   S  S S  S  S  S S  S  S     S S  S  S     S S  S
|----------------------------------------------------|
|----------------------------------------------------|
|----------------------------------------------------|
|----------------------------------------------------|
|-13-15---15-13-15---15-13b14-15---15-13b14-15---15--|
|----------------------------------------------------|
|
|  W
|----------------------------------------------------|
|-^4-------------------------------------------------|
|-^3-------------------------------------------------|
|-^5-------------------------------------------------|
|-^3-------------------------------------------------|
|----------------------------------------------------|


   S     S S  S  S     S S  S  S  S  S  S  S   S  S  S
|------------------------------------------------------|
|------------------------------------------------------|
|------------------------------------------------------|
|-----------------------------------------13-----15-13-|
|-13b14-15---15-13b14-15---15-13-15-13-15-----15-------|
|------------------------------------------------------|
|
| +H.                                     +E.        S
|------------------------------------------------------|
|-(4)-------------------------------------(4)----------|
|-(3)-------------------------------------(3)--------5-|
|-(5)-------------------------------------(5)--------6-|
|-(3)-------------------------------------(3)--------6-|
|----------------------------------------------------4-|


          ~~                   ~~
   S   S  E  S  S  S  S  S  S  E  S  S  S  S
|--------------------------------------------|
|--------------------------------------------|
|--------------------------------------------|
|-----------13----15-13----------13----15-13-|
|-15--13-15----15-------15-13-15----15-------|
|--------------------------------------------|
|
| +W
|--------------------------------------------|
|--------------------------------------------|
|-(5)----------------------------------------|
|-(6)----------------------------------------|
|-(6)----------------------------------------|
|-(4)----------------------------------------|


   S  S  S  S  a  S  S  S  S  S  S  T  T  T  T  S  S  S  S
|----------------------------------------------------------|
|----------------------------------------------------------|
|-------------------15-------------------------------------|
|----------13-15s16----17-16-15----15h16p15----15----------|
|-15-13-15----------------------17----------18----18-15-18-|
|----------------------------------------------------------|


   S  S S  S S  S E S  S      +E   +E    e
|---------------------20b22==(20)-(20)r-20--|
|--------------20---------------------------|
|---------17--------------------------------|
|----17-------------------------------------|
|-15----------------------------------------|
|-------------------------------------------|



   S  S E S  E.    S  S  S  S  S  S  S  S
|-18--------------18----------------------|
|----20-----19b20----20-19-18-------------|
|-----------------------------20-17----17-|
|-----------------------------------20----|
|-----------------------------------------|
|-----------------------------------------|


                                              ~~~~~~~
           |------3------|
   E      +S   +S       +S   +E   e  S  S  S  S  +E   S  S
|----------------------------------------------------------|
|----------------------------------------------------------|
|-20b24==(20)r(20)b24==(20)r(20)-17----17------------------|
|-----------------------------------20---------------------|
|-----------------------------------------20-18-(18)----18-|
|----------------------------------------------------20----|

                                ~~~    ~~
   S  a      +E   S  S  S  S S  E.  S  Q
|------------------------------------------||
|------------------------------------------||
|------------------------------------------||
|------------------------------------------||
|-20-20pb21r(20)p18-20-18----------17------||
|-------------------------20-x-19-----20---||


w/Rhy Fig 1 xx2
  W                                 H           E.  S  +S   +E.
|---------------------------------|----------------20-(20)-(20)-|
|---------------------------------|-----------------------------|
|---------------------------------|-----------------------------|
|---------------------------------|-----------------------------|
|---------------------------------|-----------------------------|
|---------------------------------|-----------------------------|


                                             D.S. al Coda
  W                                 H           Q  E e
|---------------------------------|-----------------------||
|---------------------------------|-----------------------||
|---------------------------------|-----------------------||
|---------------------------------|-----------------------||
|---------------------------------|-----------------------||
|---------------------------------|------------------8----||


w/Rhy Fig 1 x4
    &
     W
||--^1-------------------------------|
||o-^1-------------------------------|
||--^3-------------------------------|
||--^1-------------------------------|
||o-^3-------------------------------|
||-----------------------------------|


                              1.
  E.   S +E    E   +Q.   S S   W
|-1--------------------------|---------------------------------|
|------1-(1)-----------------|---------------------------------|
|--------------3---(3)-------|---------------------------------|
|------------------------1-1-|---------------------------------|
|------------------------3-3-|---------------------------------|
|----------------------------|---------------------------------|


                          2.
                                                          \3_________
  H           E Q   E      H             Q        E.      a    +S
|----------------------||-------------------------------------------|
|---------------------o||-------------------------------------------|
|----------------------||--------------------------------<2>--(<2>)-|
|----------------------||--------------------------------<2>--(<2>)-|
|---------------x\----o||-------------------------------------------|
|---------------x\-----||-------------------------------------------|


    /
   +H              +S    +S   E  E  E
|---------------------------------------|
|---------------------------------------|
|-(<2>)-----------(<2>)-(<2>)-----------|
|-(<2>)-----------(<2>)-(<2>;)-----------|
|--------------------------------x\-----|
|-----------------------------x\-x\-----|


w/Rhy Fig 1 x4
     W
||--^1-------------------------------|
||o-^1-------------------------------|
||--^3-------------------------------|
||--^1-------------------------------|
||o-^3-------------------------------|
||-----------------------------------|


                              1.
  E.   S +E    E   +Q.   S S   Q   E    E      S  S S  S  Q
|-1--------------------------|-------------------------------------|
|------1-(1)-----------------|-------------------------------------|
|--------------3---(3)-------|-------------------------------------|
|------------------------1-1-|-------------------------------------|
|------------------------3-3-|---------/x-----/x\-x---/x-----------|
|----------------------------|-------------------------------------|


                          2.
  Q    S  S S  S H         W                                 W
|----------------------||----------------------------------|------------------||
|---------------------o||----------------------------------|------------------||
|----------------------||----------------------------------|------------------||
|----------------------||----------------------------------|------------------||
|-----/x\-x---/x------o||----------------------------------|------------------||
|----------------------||----------------------------------|------------------||


 Outro
w/Rhy Fig 1 to end
  |-3--|
  S  S S  T T  T T  T T  T T  T T  T  T  e   E    T   T  T  T  T  T  T T
|---10p8h10p8h10p8h10p8-10p8h10p8h10p=8h10-------10h=11p10h11p10h11p10s8-|
|------------------------------------------------------------------------|
|------------------------------------------------------------------------|
|------------------------------------------------------------------------|
|------------------------------------------------------------------------|
|------------------------------------------------------------------------|


                      |--3--|
  +S   S E Q       S  T  T  T S  S S  S S  S
|-(8)-10-------------10-11p10p8-10-8----8------|
|------------------------------------11---11p==|
|----------------------------------------------|
|----------------------------------------------|
|----------------------------------------------|
|----------------------------------------------|


                                   |--3---|
   S S  S S  E    +T  T  T  T  E   S  S   S  T  T  T T  T T  T T
|----------------------------------------------------------------|
|-10-8-10p8-10---(10)p8-------10p==8--------10p=8h10p8------10p8-|
|-----------------------10p=8--------10p==8------------10p8------|
|----------------------------------------------------------------|
|----------------------------------------------------------------|
|----------------------------------------------------------------|


                       |---------7----------|                     |-----6-----|
   T T  T T  T T  T T  S S    S S    S S    S T  T T  T T  T T  T S  S S  S S S
|---------------------------------------------------------------------------------|
|---------8h10p8h10p8h10p8----------10p8h==10p8------10p8----8--------------------|
|-10p8h10--------------------10p8---------------10p8------10------8h10p8----------|
|--------------------------------------------------------------10--------10p8s7h==|
|---------------------------------------------------------------------------------|
|---------------------------------------------------------------------------------|


                                             ~~~~~~~~
  Q    E   E     E   E    E    S S   E E E   E   +E  Q  S    +S
|----------------------------------|------------------------------|
|----------------------------------|------------------------------|
|----------------------------------|------------------------------|
|-8s==10s==5s====3s==5s===7----8p7s|=3s5s3s==1---(1)--------------|
|----------------------------------|--------------------5b6==(5)r=|
|----------------------------------|------------------------------|


                                    |---3---|    |---3----|
  +S     +S  +S     +S  +Q          E   E   E    E    E   E
|-------------------------------------------------------------|
|-------------------------------------------------------------|
|-------------------------------------------------------------|
|------------------------------------------------6s===7---8h==|
|-(5)b6==(5)r(5)b6==(5)r(5)s========3s==5s==6-----------------|
|-------------------------------------------------------------|


   |--3--|              |--3--|
   E E   E  S  S  S  S  E  E  E  S  S  S  S
|----------------------------10-------10-11-|
|----------11-------10-11-13----11-13-------|
|----7s==8----10-12-------------------------|
|-10----------------------------------------|
|-------------------------------------------|
|-------------------------------------------|


   ~~~~~~~~~~~~~~~~~~~~~~~~~~~~~~~~~~~~~~~~~~~~
   E  E  +S   S  E      E.      S  +E     E
|-13-13-(13)-13-13-----13------13-(13)---13---|
|---------------------------------------------|
|---------------------------------------------|
|---------------------------------------------|
|---------------------------------------------|
|---------------------------------------------|


 ~~~~~~~~~~~~~~~~
   +S   E.    E.      S      +Q    +S   S  S  S
|-(13)-13----13------15b16==(15)r=(15)-13-------|
|-----------------------------------------16-13-|
|-----------------------------------------------|
|-----------------------------------------------|
|-----------------------------------------------|
|-----------------------------------------------|


                  ~~~
   S  S  S  S  S  E.        q        Q
|---------------------------------------------|
|----13----16----13--------15-----------------|
|-15----15----15------------------------------|
|---------------------------------------------|
|---------------------------------------------|
|---------------------------------------------|


   S      +E.    +E      e   Q  E.  S
|-18b20==(18)---(18)r---18---------18b20==|
|-----------------------------------------|
|-----------------------------------------|
|-----------------------------------------|
|-----------------------------------------|
|-----------------------------------------|


                 ~~~~~~~~~~~~~~~~
   +Q     +e     E          +Q          E     S  S
|-(18)r==(18)---20b22======(20)r-------------18-18b20==|
|------------------------------------------------------|
|------------------------------------------------------|
|------------------------------------------------------|
|------------------------------------------------------|
|------------------------------------------------------|


              |---3----|
   +E   +E   +S   S    S      +E     +E    e S  E.
|-(18)-(18)r(18)-16-----------------------------------|
|---------------------18b20==(18)---(18)r-16---18b20==|
|-----------------------------------------------------|
|-----------------------------------------------------|
|-----------------------------------------------------|
|-----------------------------------------------------|


    |---3----|            |----3----|            |----3----|            |----3----|
   +S   +S   S  S  S     +S   +S    S  S  S     +S   +S    S  S  S     +S   +S    S  S  S
|--------------------------------------------------------------------------------------------|
|-(18)r(18)p16----18b20=(18)r(18)p=16----18b20=(18)r(18)p=16----18b20=(18)r(18)p=16----18b20=|
|--------------17---------------------17---------------------17---------------------17-------|
|--------------------------------------------------------------------------------------------|
|--------------------------------------------------------------------------------------------|
|--------------------------------------------------------------------------------------------|


    |---3----|            |----3----|            |---3----|            |--------6--------|
   +S   +S   S  S  S     +S   +S    S  S  S     +S   +S   S  S  S     +S   +S   S  S  S  S
|---------------------------------------------------------------------------------------------|
|-(18)r(18)p16----18b20=(18)r(18)p=16----18b20=(18)r(18)p16----18b20=(18)r(18)p16-------20b23=|
|--------------17---------------------17--------------------17--------------------17-15-------|
|---------------------------------------------------------------------------------------------|
|---------------------------------------------------------------------------------------------|
|---------------------------------------------------------------------------------------------|


   +E   +E   S  S  S  S   S  S  e    e     e
|------------------------------18---18----18---|
|-(20)r(20)-16-----------16-20-----------------|
|--------------17-15-17------------------------|
|----------------------------------------------|
|----------------------------------------------|
|----------------------------------------------|


                              |--3--|  |--------7--------|
   S  S  S  S  E    e   S  S  S  S  S  S  S  S  S  S  S  S
|-17-18-17---------22--------------15-18p15----------15-----|
|----------19-18-------------16-------------18-16-18----18--|
|-------------------------17----17--------------------------|
|-----------------------------------------------------------|
|-----------------------------------------------------------|
|-----------------------------------------------------------|


                         ~~~~~~~~~~~~~
         |--3--|
   S  s  S  S  S  S  S  +E       +S   S E    Q
|-----------------------------------------------------|
|-16-18-16-------15-----------------------------------|
|----------17-15----17-(17)-----(17)p15---------------|
|-----------------------------------------------------|
|-----------------------------------------------------|
|-----------------------------------------------------|

                                               \1.5___/
   |-----------9:8----------|                         |---3---|           |-------9:8-------|
   T  T  T  T  T   T  T  T  T  T  T  T  T E    S     +T   +T  T  T T T T  T T T  T T T  T T T
|---------------------------------------------------------------------------------------------|
|-20p18p16s15h16h=18p16p15----15h16h18p15-----------------------------------------------------|
|--------------------------17-----------------15----(15)-(15)p0-10-8-7-8-10-8-7----7-8-10-8-7-|
|-------------------------------------------------------------------------------10------------|
|---------------------------------------------------------------------------------------------|
|---------------------------------------------------------------------------------------------|


                                ~~~~~~~
   |--------9:8--------|
   T T T  T T   T  T T T  T T T T +E      q        Q
|-------------------------------------------------------------|
|-------------------------------------------------------------|
|----7h8h10p8p==7----7h8h10p8p7-8-(8)p====7--------7tr8-------|
|-10--------------10------------------------------------------|
|-------------------------------------------------------------|
|-------------------------------------------------------------|


  +Q       +E       +E        S E.Q
|--------------------------------------*|
|--------------------------------------*|
|-(7tr8)---(7tr8)---(7tr8)/------------*|
|--------------------------------------*|
|-------------------------------xsx\---*|
|--------------------------------------*|

===============================================================================
comments
We did not receive enough feedback on this tab! Please rate:
print report bad tab
1 2 3 4 5
1 comment total.
0 reply
Satrianifan281 wrote on May 7 2013, 11:43 am

Satch mutes the strings on the 11th or 10th fret and left-hand taps this section, it's hard to explain, watch a live performance if you don't understand.
|-20p17-21-------20-------20p16-(16)----------16S14-------13-------------------12-17p13-----|
|----------17----------16------------------16-------12----------14----12----------------15--|
|-------------19---------------------19-17-------------14----15----14----14p13--------------|
|-------------------19----------------------------------------------------------------------|
|-------------------------------------------------------------------------------------------|
|-------------------------------------------------------------------------------------------|

I want to post or [tab]
guest
You may want to rate the tab now too:
select rating
Please do not post tabs as comments. Select "correction" instead!