Oops, an error
Loading. Please wait.

Crushing Day Tab

ver2
ver2

Intro

Whole song

Interactive

More versions @911Tabs.com
31,697 views 109 this week
8 commentsread comments
1 2 3 4 5
accurate
x 21
Autoscroll
+/-
esc
set tempo
stop
Contributor
Hey! There's an official Ultimate Guitar app which is ideal
for learning songs when you're away from computer. Get the app
WARNING: You are trying to view
                                    content from Ultimate-Guitar.com
                                    in an unauthorized application,
                                    which is prohibited.

                                    Please use an official Ultimate
                                    Guitar Tabs application for iPhone,
                                    iPad or Android to access legitimate
                                    chords, guitar, bass, and drum tabs
                                    from Ultimate-Guitar.com database.

                                    Type "ultimate guitar tabs" in Apple
                                    App Store's or Android Market's
                                    search to find the application.
-------------------------------------------------------------------------------
			     Crushing Day - Joe Satriani
-------------------------------------------------------------------------------
Tabbed by: Grant Smith
Email: bulletproof__cupid@hotmail.com

Tuning: Standard
| /  slide up
| \  slide down
| h  hammer-on
| p  pull-off
| ~  vibrato
| +  harmonic
| x  Mute note
| ^  Bend
Guitar 1: Rythm
      C5                            C(b5)                      
E||----------------------------|----------------------------|
B||----------------------------|----------------------------|
G||---5--------5---------------|---5--------5---------------|
D||---5--------5---------------|---5--------5---------------|
A||---3--3--3--3--3--3--3--3---|---3--3--3--3--3--3--3--3---|
E||----------------------------|----------------------------|

      C5                            C(b5)                      
E||----------------------------|----------------------------|
B||----------------------------|----------------------------|
G||---5--------5---------------|---5--------5---------------|
D||---4--------4---------------|---4--------4---------------|
A||---3--3--3--3--3--3--3--3---|---3--3--3--3--3--3--3--3---|
E||----------------------------|----------------------------|

E||----------------------------|----------------------------|
B||----------------------------|----------------------------|
G||---5--------5---------------|---5--------5---------------|
D||---5--------5---------------|---5--------5---------------|
A||---3--3--3--3--3--3--3--3---|---3--3--3--3--3--3--3--3---|
E||----------------------------|----------------------------|

      C5                            C(b5)                      
E||----------------------------|----------------------------|
B||----------------------------|----------------------------|
G||---5--------5---------------|---5------------------------|
D||---4--------4---------------|---4------------------------|
A||---3--3--3--3--3--3--3--3---|---3--------------0--1--2---|
E||----------------------------|------0--1--2--3------------|

This is where Joe Satriani kicks in

Guitar 2: Lead
Enters at: 12.7
e|--------------------|---------------------------|
B|------13~--16~------|------13~--16~-------------|
G|-12~-----------14\~-|-12~------------14\-12~11~-|
D|--------------------|---------------------------|
A|--------------------|---------------------------|
E|--------------------|---------------------------|
								34.5
e|------------------------------------|-------15---------------------|
B|------13~--16~-------------17-15----|-13/15----18--16--15----------|
G|-12~-----------14\~--14-15----------|---------------------17b-17r~-|
D|---------------------------------17-|------------------------------|
A|------------------------------------|------------------------------|
E|------------------------------------|------------------------------|
							42.2
e|----------------|--------17b-17r-15--------------------------|
B|-------17-15----|-13/15--18b-18r-16-18--16b--16r--16---------|
G|-14-15----------|-------------------19--17b--17r--17---------|
D|-------------17-|--------------------------------------------|
A|----------------|--------------------------------------------|
E|----------------|--------------------------------------------|

Phase 2: Lead
Enter at: 55.7
e|--------------------|---------------------------|
B|------13~--16~------|------13~--16~-------------|
G|-12~-----------14\~-|-12~------------14\-12~11~-|
D|--------------------|---------------------------|
A|--------------------|---------------------------|
E|--------------------|---------------------------|
								
e|----------------------------------------|-------15---------------------|
B|------13~--16~------------------17-15---|-13/15----18--16--15----------|
G|-12~-----------14\~--14b14b14r15--------|---------------------17b-17r~-|
D|-------------------------------------17-|------------------------------|
A|----------------------------------------|------------------------------|
E|----------------------------------------|------------------------------|
							
e|----------------|--------17b-17r-15--------------------------|
B|-------17-15----|-13/15--18b-18r-16-18--16b--16r--16---------|
G|-14-15----------|-------------------19--17b--17r--17---------|
D|-------------17-|--------------------------------------------|
A|----------------|--------------------------------------------|
E|----------------|--------------------------------------------|
  1:34.9
e|-----19-22b-22r-20-19-19-17-17-|-------------19-22b-22r-20-19-19-17~-|
B|-17-----^^---------------------|-19b-19r-17--------------------------|
G|-------23-if-------------------|-------------------------------------|
D|------possible-----------------|-------------------------------------|
A|-------------------------------|-------------------------------------|
E|-------------------------------|-------------------------------------|

e|-15-17-15-17b-17b-17b-17r-15--------------|
B|-----------------------------18-18-16-16~-|
G|------------------------------------------|
D|------------------------------------------|
A|------------------------------------------|
E|------------------------------------------|

Guitar 1: Rythm (backing for the lead guitar above
	                          C5                       
e|--------------------------|--------------------------|
B|--------------------------|--------------------------|
G|--5-----------------------|--5--------5--------------|
D|--4-----------------------|--5--------5--------------|
A|--3--------------0--1--2--|--3--3--3--3--3--3--3--3--|
E|-----0--1--2--3-----------|--------------------------|

  C5                         D5                       
e|--------------------------|--------------------------|
B|--------------------------|--------------------------|
G|--5--------5--------------|--7--------7--------------|
D|--5--------5--------------|--7--------7--------------|
A|--3--3--3--3--3--3--3--3--|--5--5--5--5--5--5--5--5--|
E|--------------------------|--------------------------|

                       A5    C5                       
e|--------------------------|--------------------------|
B|--------------------------|--------------------------|
G|--7--------7-----------2--|--5--------5--------------|
D|--7--------7-----------2--|--5--------5--------------|
A|--5--5--5--5--5--5--5--0--|--3--3--3--3--3--3--3--3--|
E|--------------------------|--------------------------|

  C5                         D5                       
e|--------------------------|--------------------------|
B|--------------------------|--------------------------|
G|--5--------5--------------|--7--------7--------------|
D|--5--------5--------------|--7--------7--------------|
A|--3--3--3--3--3--3--3--3--|--5--5--5--5--5--5--5--5--|
E|--------------------------|--------------------------|

                       A5    C5                       
e|--------------------------|--------------------------|
B|--------------------------|--------------------------|
G|--7--------7-----------2--|--5--------5--------------|
D|--7--------7-----------2--|--5--------5--------------|
A|--5--5--5--5--5--5--5--0--|--3--3--3--3--3--3--3--3--|
E|--------------------------|--------------------------|

  C5                         D5                       
e|--------------------------|--------------------------|
B|--------------------------|--------------------------|
G|--5--------5--------------|--7--------7--------------|
D|--5--------5--------------|--7--------7--------------|
A|--3--3--3--3--3--3--3--3--|--5--5--5--5--5--5--5--5--|
E|--------------------------|--------------------------|

                       A5    Gm                           
e|--------------------------|------------------------------|
B|--------------------------|--11----------11----11--------|
G|--7--------7-----------2--|--12----------12----12--------|
D|--7--------7-----------2--|--12----------12----12--------|
A|--5--5--5--5--5--5--5--0--|--10--10--10--10----10--x--6--|
E|--------------------------|------------------------------|

  Eb                        F                          
e|-------------------------|----------------------------|
B|--8--------8----8--------|--10--------10----10--------|
G|--8--------8----8--------|--10--------10----10--------|
D|--8--------8----8--------|--10--------10----10--------|
A|--6--6--6--6----6--x--8--|--8---8--8--8-----8---x--8--|
E|-------------------------|----------------------------|

                                Gm                           
e|-----------------------------|------------------------------|
B|--10--------10----10---------|--11----------11----11--------|
G|--10--------10----10---------|--12----------12----12--------|
D|--10--------10----10---------|--12----------12----12--------|
A|--8---8--8--8-----8---x--10--|--10--10--10--10----10--x--6--|
E|-----------------------------|------------------------------|

  Eb                        F                          
e|-------------------------|----------------------------|
B|--8--------8----8--------|--10--------10----10--------|
G|--8--------8----8--------|--10--------10----10--------|
D|--8--------8----8--------|--10--------10----10--------|
A|--6--6--6--6----6--x--8--|--8---8--8--8-----8---x--8--|
E|-------------------------|----------------------------|

                                                    
e|----------------------------||
B|--10--------10----10--------||
G|--10--------10----10--------||
D|--10--------10----10--------||
A|--8---8--8--8-----8---x--3--||
E|----------------------------||

Guitar 2: Joe Satriani
This is were Joe really takes off!
  1:52
e|----------------------------------|
B|----------------------------------|
G|--------0-3p0-5p0-3p0-------------|
D|--0h5-5---------------5p0-3h5-0h3h|
A|----------------------------------|
E|----------------------------------|
                                                               
e|------------------8r-------|----------------------------------|
B|---------------------------|----------------------------------|
G|----0-3p0-5p0-3p0----------|--------0-3p0-5p0-3p0-------------|
D|--5------------------------|--0h3h5---------------5p0-3h5-0h3h|
A|---------------------------|----------------------------------|
E|---------------------------|----------------------------------|
                                                         
e|-------------------------|----------------------------------|
B|---------3h6--6-8~-------|----------------------------------|
G|----0h5------------------|--------0-3p0-5p0-3p0-------------|
D|--5----------------------|--0h3h5---------------5p0-3h5-0h3h|
A|-------------------------|----------------------------------|
E|-------------------------|----------------------------------|
                                                               
e|-------------------------------|----------------------------------|
B|-------------------------------|----------------------------------|
G|----0-3p0-5p0---0-3p0----3r-3--|--------0-3p0-5p0-3p0---0-3p0-5p0-|
D|--5-----------2-------2--------|--0h3h5---------------3p----------|
A|-------------------------------|----------------------------------|
E|-------------------------------|----------------------------------|
                       2:04                                           
e|--------------------|--------------------------------------------------|
B|--------------------|--------------------------------------------------|
G|--0----5------------|-----------12-15p12-17p12-15p12----12-------------|
D|--------------------|--12h15h17----------------------17----15h17-12h15h|
A|--------------------|--------------------------------------------------|
E|--------------------|--------------------------------------------------|
                               
e|----------------------------------|
B|----------------------------------|
G|-----12-15p12-17p12-15p12---------|
D|--17------------------------------|
A|----------------------------------|
E|----------------------------------|
                                               
e|--------------------------------------------------|
B|--------------------------------------------------|
G|-----------12-15p12-17p12-15p12-------------------|
D|--12h15h17----------------------17p12-15h17-12h15h|
A|--------------------------------------------------|
E|--------------------------------------------------|
                                     
e|--------------------------15~-------|
B|--------------14/15h18-18-----------|
G|-----12-15h17-----------------------|
D|--17--------------------------------|
A|------------------------------------|
E|------------------------------------|
                                                 
e|--------------------------------------------------|
B|--------------------------------------------------|
G|--12----------15p12-17p12-15p12-------------------|
D|-----15-16-17-------------------17p12-15h17-12h15h|
A|--------------------------------------------------|
E|--------------------------------------------------|
                                              
e|----------------------------------------------|
B|----------------------------------------------|
G|-----12-15p12-17p12-------15p12-------15r-15~-|
D|--17----------------14p12-------14p12---------|
A|----------------------------------------------|
E|----------------------------------------------|
                                                 2:16                      
e|------------------------------------------------|---------------------|
B|--------------------17----------------15----17--|---------------------|
G|-----------12-15p12-17p12-15p12-------15p12-17p-|--12----12--------12-|
D|--12h15h17----------------------15p12-----------|---------------------|
A|------------------------------------------------|---------------------|
E|------------------------------------------------|---------------------|

Lead: Joe (Final solo, insane)
  2:28
e|-----------------------|-----------------------|-----------------------|
B|-----------------------|-----------------------|-----------------------|
G|----5------------------|-----------------------|-----------------------|
D|-------5-----3b-5------|-------5-----3b-5------|-------3b----3b-3b-----|
A|----------5------------|----5-----5------------|----5-----5------------|
E|-----------------------|-----------------------|-----------------------|
                                                                   
e|-----------------------|-----------------------|-----------------------|
B|-----------------------|-----------------------|-----------------------|
G|-----------------------|-----------------------|-----------------------|
D|-------3b----3--3------|-------5-----3b-5------|-------5-----3b-5------|
A|----5-----5------------|----5-----5------------|----5-----5------------|
E|-----------------------|-----------------------|-----------------------|
                                                  
e|-------------------------|-----------------------|
B|-------------------------|-----------------------|
G|-------------------------|--------------------x--|
D|-------3b----3--3--3b----|--3b----3b-3--------x--|
A|----5-----5-----------5--|-----0-----------------|
E|-------------------------|-----------------------|
   2:40                                                             
e|------------------10-15p108-------8-13p8--------10-15p10-------|
B|--15----------12---------------10------------12----------------|
G|-----12----12---------------12------------14-------------0h2/3h|
D|--------14-----------------------------------------------0h2/3h|
A|---------------------------------------------------------------|
E|---------------------------------------------------------------|
      
e|-----------15p108-------8-13p8-------10-15p10--|
B|---------x------------10-----------12----------|
G|--5p3p0------------12-----------14-------------|
D|--5p3p0----------------------------------------|
A|-----------------------------------------------|
E|-----------------------------------------------|

e|--20p17-------------------------------------------|
B|--------18----------------------------------------|
G|-----------19-17p14----------------------------12h|
D|--------------------15p12-------------12h14h15----|
A|--------------------------13p12-13h15-------------|
E|--------------------------------------------------|
                                       
e|-----------------13-17p13-15~---------|
B|--------13h15h17------------------0---|
G|--14h15-----------------------------0-|
D|--------------------------------------|
A|--------------------------------------|
E|--------------------------------------|
                                                               
e|--------------10-15p108-------8-13p8----------10-15p10--------|
B|-----------12---------------10--------10----10----------------|
G|--0-----12---------------10--------------12-------------0h2/3h|
D|-----14-------------------------------------------------0h2/3h|
A|--------------------------------------------------------------|
E|--------------------------------------------------------------|
                                                      
e|------------15p108-------8-13p8----------10-15p10----|
B|----------x------------10--------10----10------------|
G|--5p3p0-x-----------12--------------12---------------|
D|--5p3p0----------------------------------------------|
A|-----------------------------------------------------|
E|-----------------------------------------------------|
                                                   
e|--20p17-------------------------------------------|
B|--------18----------------------------------------|
G|-----------19-17p14----------------------------12h|
D|--------------------15p12-------------12h14h15----|
A|--------------------------13p12-13h15-------------|
E|--------------------------------------------------|
                                    
e|-----------------13-17p13/20~------|
B|--------13h15h17-------------------|
G|--14h15----------------------------|
D|-----------------------------------|
A|-----------------------------------|
E|-----------------------------------|
   2.51                                            
e|--22p15-22p15-15-21p15-15-20p15-20p15-15-21p15-15-|
B|--------------------------------------------------|
G|--------------------------------------------------|
D|--------------------------------------------------|
A|--------------------------------------------------|
E|--------------------------------------------------|
                                                   
e|--22p15-22p15-15-21p15-15-20p15-20p15-15-21p15-15-|
B|--------------------------------------------------|
G|--------------------------------------------------|
D|--------------------------------------------------|
A|--------------------------------------------------|
E|--------------------------------------------------|
                                                   
e|--22p15-15-21p15-15-20p15----20p15----18p15-------|
B|--------------------------18-------18-------18p15-|
G|--------------------------------------------------|
D|--------------------------------------------------|
A|--------------------------------------------------|
E|--------------------------------------------------|
                                                   
e|--18h20p18-15-------18-20p18-15-------------------|
B|--------------20-15-------------20p15-18-20p18p15-|
G|--------------------------------------------------|
D|--------------------------------------------------|
A|--------------------------------------------------|
E|--------------------------------------------------|
                                                   
e|--------------------------------------------------|
B|-----15-18h20p18p15----15-18h20p18p15-------20p15-|
G|--18----------------18----------------18p15-------|
D|--------------------------------------------------|
A|--------------------------------------------------|
E|--------------------------------------------------|
                                                   
e|--------------------------------------------------|
B|--18p15----18p15-18p15----20p15-20p15----18p15-20-|
G|--------18-------------18-------------17----------|
D|--------------------------------------------------|
A|--------------------------------------------------|
E|--------------------------------------------------|
                                                   
e|--------------------------------------------------|
B|--20p15----18p15-20-20p15----18p15----17p15-------|
G|--------18----------------18-------17-------18-18-|
D|--------------------------------------------------|
A|--------------------------------------------------|
E|--------------------------------------------------|
    3:00                                                            
e|------------------------------------|-----3--3-----3--3-----3--|
B|--------17p15-------17r-17----x-----|-----3--3--5b-3--3-----3--|
G|--14-17-------17p14-17r-17----x--5b-|--5--------5b-------5b----|
D|------------------------------------|--------------------------|
A|------------------------------------|--------------------------|
E|------------------------------------|--------------------------|
                                                             
e|--3-----3--3-----3--3------|--13------12------10-----8------|
B|--3-----3--3-----3--3------|--------------------------------|
G|-----5b-------5b-------14--|------12------10------9---------|
D|---------------------------|----------------------------12--|
A|---------------------------|--------------------------------|
E|---------------------------|--------------------------------|
                                                                   
e|-----------------------------|---15-----------15-------18r---18---|
B|----------------------0--18b-|------15-18-18b----18p15------------|
G|--10--12--------------0------|------------------------------------|
D|--10--12--10--10~------------|------------------------------------|
A|----------10--10~------------|------------------------------------|
E|-----------------------------|------------------------------------|
                                             
e|--15------15--------------------------------|
B|------18------18p-15------15----------------|
G|----------------------18------18p-17--15~---|
D|--------------------------------------------|
A|--------------------------------------------|
E|--------------------------------------------|
                                                  
e|--18--15------------------------------------------|
B|----------18--15----------18--15------------------|
G|------------------17--15----------17--15----------|
D|------------------------------------------17p-15--|
A|--------------------------------------------------|
E|--------------------------------------------------|
                                                                         
e|--------------------------------------|----------------------------------|
B|--------------------------------------|----------------------------------|
G|--17--15------------------------------|----------------------------------|
D|----------17--15----------------------|--------------------------------3-|
A|------------------17--15--13~---------|--------3-----3-----3-5-6-3-5-6---|
E|----------------------------------15--|--3-5-6---5-6---5-6---------------|
                                                                       
e|----------------------------------|-----------------------------------|
B|----------------------------------|------------------------6--------8-|
G|--------------------------------5-|------5-----5-7h8-5-7-8---7-8-10---|
D|------3-5---3-5-7-3-5-7-8-5-7-8---|--7-8---7-8------------------------|
A|--5-6-----6-----------------------|-----------------------------------|
E|----------------------------------|-----------------------------------|
                                                  
e|-------------------------------------------------|
B|----------10-------10-11----10-11-13-10--11--13--|
G|--8-10-12----10-12-------12----------------------|
D|-------------------------------------------------|
A|-------------------------------------------------|
E|-------------------------------------------------|
                                                   
e|----------13--15--17--13--15--17--18--15--17------|
B|--15--16--------------------------------------18--|
G|--------------------------------------------------|
D|--------------------------------------------------|
A|--------------------------------------------------|
E|--------------------------------------------------|
                                                   
e|--15----------------------------------------------|
B|------16--18--15--16------15----------------------|
G|----------------------17------15--17--14--15--12--|
D|--------------------------------------------------|
A|--------------------------------------------------|
E|--------------------------------------------------|
                                                   
e|------15p-11--------------------------------------|
G|--------------15p-11----------15------------------|
B|--14------------------14--12------15--14--12------|
D|----------------------------------------------13--|
A|--------------------------------------------------|
E|--------------------------------------------------|
                                             
e|--------------------------------------------|
B|--------------------------------------------|
G|------14--12--------------------------------|
D|--12----------13p-12------------------------|
A|----------------------13--12----------------|
E|------------------------------13--11--13~---|
                                                  
e|--15p11-15p11---17p13----15p11-15p11-17-17p13----|
B|--------------x-------11----------------------13-|
G|-------------------------------------------------|
D|-------------------------------------------------|
A|-------------------------------------------------|
E|-------------------------------------------------|
                                                   
e|--18p15-18p15----20p17----18p15-18p15----20p17----|
B|--------------18-------16-------------18-------18-|
G|--------------------------------------------------|
D|--------------------------------------------------|
A|--------------------------------------------------|
E|--------------------------------------------------|
                                                  
e|--22p18-22p18----20p17----18p15-18p15----20p17----|
B|--------------18-------16-------------18-------16-|
G|--------------------------------------------------|
D|--------------------------------------------------|
A|--------------------------------------------------|
E|--------------------------------------------------|
                                                   
e|--18p15-18p15----17p13----15p11-15p11----15p11----|
B|--------------16-------15-------------11-------11/|
G|--------------------------------------------------|
D|--------------------------------------------------|
A|--------------------------------------------------|
E|--------------------------------------------------|
                                                                     
e|--18--18--18--18b-----x--17r-|--17p-15------------------------------|
B|-----------------------------|----------18--16p-15----------16b-----|
G|-----------------------------|----------------------17--------------|
D|-----------------------------|--------------------------15~---------|
A|-----------------------------|--------------------------------------|
E|-----------------------------|--------------------------------------|
                                                   
e|--13----------13----------13----------------------|
B|------16--15b-----16--15b-----16--15--13--16--13--|
G|--------------------------------------------------|
D|--------------------------------------------------|
A|--------------------------------------------------|
E|--------------------------------------------------|
                                                            
e|----------15------13----------------|-----------------------|
B|------13------13------13--16b-------|--16b-----16~--15b-15~-|
G|--14--------------------------------|-----------------------|
D|------------------------------------|-----------------------|
A|------------------------------------|-----------------------|
E|------------------------------------|-----------------------|

Final Phrase

e|--------------------|---------------------------|
B|------13~--16~------|------13~--16~-------------|
G|-12~-----------14\~-|-12~------------14\-12~11~-|
D|--------------------|---------------------------|
A|--------------------|---------------------------|
E|--------------------|---------------------------|
								
e|----------------------------------------|-------15---------------------|
B|------13~--16~------------------17-15---|-13/15----18--16--15----------|
G|-12~-----------14\~--14b14b14r15--------|---------------------17b-17r~-|
D|-------------------------------------17-|------------------------------|
A|----------------------------------------|------------------------------|
E|----------------------------------------|------------------------------|
							
e|----------------|--------17b-17r-15--------------------------|
B|-------17-15----|-13/15--18b-18r-16-18--16b--16r--16---------|
G|-14-15----------|-------------------19--17b--17r--17---------|
D|-------------17-|--------------------------------------------|
A|----------------|--------------------------------------------|
E|----------------|--------------------------------------------|
  1:34.9
e|-----19-22b-22r-20-19-19-17-17-|-------------19-22b-22r-20-19-19-17~-|
B|-17-----^^---------------------|-19b-19r-17--------------------------|
G|-------23-if-------------------|-------------------------------------|
D|------possible-----------------|-------------------------------------|
A|-------------------------------|-------------------------------------|
E|-------------------------------|-------------------------------------|

e|-15-17-15-17b-17b-17b-17r-15--------------|
B|-----------------------------18-18-16-16~-|
G|------------------------------------------|
D|------------------------------------------|
A|------------------------------------------|
E|------------------------------------------|
 
Continue to fade...End

===============================================================================
comments
print report bad tab
8 comments total. Showing first comments.
0 reply
hep wrote on December 14 2005, 01:27 pm

this solo is hard as crap

+6 reply
rick21 wrote on April 29 2006, 02:36 pm

great tab
but there is a little mistakes at this part:
34.5
e|------------------------------------|
B|------13~--16~-------------17-15----|
G|-12~-----------14\~--14-15----------|
D|---------------------------------17-|
A|------------------------------------|
E|------------------------------------|

should be:
e|------------------------------------|
B|------13~--16~----------------15----|
G|-12~-----------14\~--14-15-17-------|
D|---------------------------------17-|
A|------------------------------------|
E|------------------------------------|

-2 reply
slash2451 wrote on August 1 2006, 01:00 pm

Not the whole song...

I want to post or [tab]
guest
You may want to rate the tab now too:
select rating
Please do not post tabs as comments. Select "correction" instead!