Oops, an error
Loading. Please wait.

Cryin Tab

ver2
ver2

Whole song

Interactive

More versions @911Tabs.com
36,900 views 60 this week
5 commentsread comments
1 2 3 4 5
excellent!
x 13
Autoscroll
+/-
esc
set tempo
stop
Contributor
Hey! There's an official Ultimate Guitar app which is ideal
for learning songs when you're away from computer. Get the app
WARNING: You are trying to view
                                    content from Ultimate-Guitar.com
                                    in an unauthorized application,
                                    which is prohibited.

                                    Please use an official Ultimate
                                    Guitar Tabs application for iPhone,
                                    iPad or Android to access legitimate
                                    chords, guitar, bass, and drum tabs
                                    from Ultimate-Guitar.com database.

                                    Type "ultimate guitar tabs" in Apple
                                    App Store's or Android Market's
                                    search to find the application.
-----------------------------------------------------------------------
                             Cryin – Joe Satriani
-----------------------------------------------------------------------
Tabbed by: A. Wheeler
  

Tuning: Standard

e|--------------------------------------------------------------------|
B|--pb7(8)-r7--5-7B-7B---7p5---------5--------pb7(8)-r7--5-7B-7B--7p5-|
G|-----------------------------6p4h6----6p4---------------------------|
D|--------------------------------------------------------------------|
A|--------------------------------------------------------------------|
E|--------------------------------------------------------------------|

e|--------------------------------------------------------------------|
B|------------pb7(8)-r7--5-7B-7B---7p5---------5----------------------|
G|--4/6/9\4------------------------------6p4h6---6p4—---6/8\4/6/9\6\4-|
D|--------------------------------------------------------------------|
A|--------------------------------------------------------------------|
E|--------------------------------------------------------------------|

e|--------------------------------------------------------------------|
B|--pb19(20)-r19--17—19B-19B--19p17-------17---------pb19(20)-r19—-17-|
G|-------------------------------------18----18p16--------------------|
D|--------------------------------------------------------------------|
A|--------------------------------------------------------------------|
E|--------------------------------------------------------------------|

e|--19-19—-19b21---19-------------------------------------------------|
B|---------------------pb19(20)-r19--17—19B-19B--19p17------------17--|
G|------------------------------------------------------18p16h18------|
D|--------------------------------------------------------------------|
A|--------------------------------------------------------------------|
E|--------------------------------------------------------------------|

e|------------------------------17/19------17/19-------------16b17r16-|
B|----------16-12-14/17\14~--17---------17--------16-17--17-----------|
G|--18p16-------------------------------------------------------------|
D|--------------------------------------------------------------------|
A|--------------------------------------------------------------------|
E|--------------------------------------------------------------------|

e|-------------------------------17/19-----17/19-------------19b21-19-|
B|--pb17(19)—r17—-17b19-r17----17--------17-------16-17---17----------|
G|--------------------------------------------------------------------|
D|--------------------------------------------------------------------|
A|--------------------------------------------------------------------|
E|--------------------------------------------------------------------|

e|--16b17r16------------------|
B|------------17b19r17b19-----|
G|----------------------------|
D|----------------------------|
A|----------------------------|
E|----------------------------|


<------------------pm------------------>
e|----------------------------------------------------|
B|----------------------------------------------------|
G|----------------------------------------------------|
D|-------2---4-2-4-2-4b6-4p2--x-x--------2------------|
A|--2-4----------------------------4-2-4---4-2--------|
E|----------------------------------------------2b-0--|

<---------------pm------------->
e|----------------------------------------|
B|----------------------------------------|
G|----------------------------------------|
D|-------2--4-2-x-x-4b6-4p2-x-x-----------|
A|--2-4--------------------------2/4/7\2--|
E|----------------------------------------|

<----------------pm-------------->
e|-----------------------------------------------|
B|-----------------------------------------------|
G|-----------------------------------------------|
D|----2--4p2--x-x-4b6-4p2-x--------2-2-----------|
A|--2-----------------------4-2-4------4-2—-x-x--|
E|-----------------------------------------------|

<-------pm----->
e|------------------------------------9-------------------------------|
B|----------------------------------9---12--------------12b14---------|
G|-----------------4-4~-6-4---11b13---------11b-9—11p9----------------|
D|----2--4-2--4/6-----------------------------------------------------|
A|--2-----------------------------------------------------------------|
E|--------------------------------------------------------------------|

e|----17/19----17/19------------16b17r16------------------------------|
B|--17-------17-------16-17--17-----------17b19r17—-17b19r17----------|
G|--------------------------------------------------------------------|
D|--------------------------------------------------------------------|
A|--------------------------------------------------------------------|
E|--------------------------------------------------------------------|

e|-------------------17/19-----17/19-------------19b21-19--16b17r16---|
B|-----------------17--------17-------16-17--17-----------------------|
G|--16b17r16b18-------------------------------------------------------|
D|--------------------------------------------------------------------|
A|--------------------------------------------------------------------|
E|--------------------------------------------------------------------|

e|-------------------------------------|
B|--17b19r17b19----17-15-17-/20--------|
G|-------------------------------------|
D|-------------------------------------|
A|-------------------------------------|
E|-------------------------------------|


e|--15-12--------------------------------12---------------------------|
B|--------15-12-----------------------12-------15p12------------------|
G|--------------14b16-12-----12-14b16----------------14p12h14--12-14~-|
D|-----------------------14-------------------------------------------|
A|--------------------------------------------------------------------|
E|--------------------------------------------------------------------|

e|--------------------------------------------------------------------|
B|--------------------------------------------------7--9—-12--11-12-12|
G|--14p12--------14b-p12----12-14b-16~-------6-8-9--------------------|
D|-------14p12-----------14-------------------------------------------|
A|--------------------------------------------------------------------|
E|----------------------------------------9---------------------------|

e|--------------------------------------------------------------------|
B|--14-14--12—-9b10--7-5-7—-4b5r4b5r4---------------7—-9-—12—-11-12-12|
G|-------------------------------------4/6---6-8-9--------------------|
D|--------------------------------------------------------------------|
A|--------------------------------------------------------------------|
E|--------------------------------------------------------------------|

e|--------------------------------------------------------------------|
B|--14-14--16-17-19b21-17-19~~(Hold)~~b21-r19-------------------------|
G|--------------------------------------------------------------------|
D|--------------------------------------------------------------------|
A|--------------------------------------------------------------------|
E|--------------------------------------------------------------------|

e|--11h12p11-9-11-12-9---7--------------------------|
B|--------------------------------------------------|
G|----------------------------9h11p9-8-9-8----------|
D|-----------------------------------------11-9-6---|
A|--------------------------------------------------|
E|--------------------------------------------------|

e|--------------------------------------------------------------------|
B|--------------------------------------------------------------------|
G|-6-8-9-6-8~--4-6--4-------------------------------------------------|
D|--------------------7--6-4--6--6p4-------------2-4-6-4-2-1----------|
A|-----------------------------------7----2-4-6--------------4-2------|
E|---------------------------------------------------------------4-2-0|

e|--------------------------------------------------------------------|
B|--pb7(9)-r7--5-7B-7B---7p5---------5--------7—-7b9-7—-7B-7bB—-7p5---|
G|-----------------------------6p4h6---6p4----------------------------|
D|--------------------------------------------------------------------|
A|--------------------------------------------------------------------|
E|--------------------------------------------------------------------|

e|--------------------------------------------------------------------|
B|----------7—-7b9-7—-7B-7B-—-7p5---------5---------------------------|
G|--x-4~----------------------------6p4h6---6p4----6/8\4/6/9\6~-------|
D|--------------------------------------------------------------------|
A|--------------------------------------------------------------------|
E|--------------------------------------------------------------------|


e|----17/19----17/19------------16b17r16------------------------------|
B|--17-------17-------16-17--17-----------17b19r17—-17b19r17----------|
G|--------------------------------------------------------------------|
D|--------------------------------------------------------------------|
A|--------------------------------------------------------------------|
E|--------------------------------------------------------------------|

e|----17/19----17/19---------------19b21-19--16b17r16-----------------|
B|--17-------17-------16-17--17------------------------17b19r17b19----|
G|--------------------------------------------------------------------|
D|--------------------------------------------------------------------|
A|--------------------------------------------------------------------|
E|--------------------------------------------------------------------|

e|--------------------------|
B|--5--2--5-----------------|
G|--4--------1--------------|
D|-------------4-2-----2----|
A|-----------------4-2------|
E|--------------------------|

e|----17/19----17/19-------------16b17r16--------------|
B|--17-------17-------16-17--17------------17b19r17---—|
G|-----------------------------------------------------|
D|-----------------------------------------------------|
A|-----------------------------------------------------|
E|-----------------------------------------------------|

e|-------------------------------------|
B|--17b19--r17b19r17b19r17b19b21r17----|
G|-------------------------------------|
D|-------------------------------------|
A|-------------------------------------|
E|-------------------------------------|

e|----17/19----17/19----------------19b21-19p17---19b21-19-17-19------|
B|--17-------17-------16-17----17-------------------------------------|
G|--------------------------------------------------------------------|
D|--------------------------------------------------------------------|
A|--------------------------------------------------------------------|
E|--------------------------------------------------------------------|

e|------------------------------------3--0---0------------------------|
B|--19b21--r19p17h19-----17-15-17\---------3---3b4--0-----------------|
G|-----------------------------------------------------2b3-0-2--p0----|
D|----------------------------------------------------------------2p0-|
A|--------------------------------------------------------------------|
E|--------------------------------------------------------------------|


e|------------0-3-0----------------------|
B|------------------3-0------------------|
G|--2-0-2b4-------------3-2-0------------|
D|----------------------------2-0--------|
A|--------------------------------1-0----|
E|------------------------------------0--|

e|-------------------------------10------------------10--------10-10--|
B|------------5--8--5----5~-/8------10b11--8-10b12------10b11---------|
G|-------4--7---------7-----------------------------------------------|
D|--0-----------------------------------------------------------------|
A|--------------------------------------------------------------------|
E|--------------------------------------------------------------------|

e|-------------------18b19—-17b19—-17b19—-17b19-------------|
B|--10b11--8-10b12---18b19--------------------------18b20---|
G|----------------------------------------------------------|
D|----------------------------------------------------------|
A|----------------------------------------------------------|
E|----------------------------------------------------------|

e|---------------------------------19b22--19-19—-19b22--19b22--19b22--|
B|--15--11------------------------------------------------------------|
G|---------14-12----------12------------------------------------------|
D|---------------14-12-14----14~--------------------------------------|
A|--------------------------------------------------------------------|
E|--------------------------------------------------------------------|

e|--19-19---22b24-—22b24---15-12----15b17--r15b17r15---|
B|-------------------------------15--------------------|
G|-----------------------------------------------------|
D|-----------------------------------------------------|
A|-----------------------------------------------------|
E|-----------------------------------------------------|

e|--12----12-15-12----12-----------------------------------|
B|-----15----------15----15-12-----------------------------|
G|-----------------------------14b15-12--------------------|
D|--------------------------------------14-12-12\wb--------|
A|---------------------------------------------------------|
E|------------------------------------------------------0--|


| /  slide up
| \  slide down
| h  hammer-on
| p  pull-off
| ~  vibrato
| r  release bend
| x  mute note
| wb whammy Bar
| pb(x) pre-bend to specific note
| b  bend to note
| B  whole bend
comments
print report bad tab
5 comments total. Showing first comments.
0 reply
Tallica93 wrote on April 25 2008, 03:48 pm

Hey, nice tab, it was a tiny bit off in places, but really helped, thanks....

0 reply
awheeler wrote on April 30 2008, 08:05 pm

Thanks for the comment. I reviewed the tab and corrected one major mistake I made.

0 reply
holychurch666 wrote on November 18 2013, 11:41 am

very good

I want to post or [tab]
guest
You may want to rate the tab now too:
select rating
Please do not post tabs as comments. Select "correction" instead!