Oops, an error
Loading. Please wait.

Down Down Down Tab

1,367 views 9 this week
no commentswrite comment
1 2 3 4 5
excellent!
x 1
add to favorites launch autoscroll
font size
0
reset
Autoscroll
+/-
esc
set tempo
stop
Contributor
Difficulty
intermediate
WARNING: You are trying to view
                                    content from Ultimate-Guitar.com
                                    in an unauthorized application,
                                    which is prohibited.

                                    Please use an official Ultimate
                                    Guitar Tabs application for iPhone,
                                    iPad or Android to access legitimate
                                    chords, guitar, bass, and drum tabs
                                    from Ultimate-Guitar.com database.

                                    Type "ultimate guitar tabs" in Apple
                                    App Store's or Android Market's
                                    search to find the application.
Here's the intro, played on acoustic


|-----0-------0---|-----0-------0---|-----0-------0---|-----0------------|
|-----0-------0---|-----0-------0---|-----0-------0---|-----0------------|
|---4---4---4---4-|---4---4---5-----|---4---4---4---4-|---4---4---2-0-2--|
|---2---2---2---2-|---2---2---3-----|---2---2---2---2-|---2---2---3-3-3--|
|-----------------|-----------------|-----------------|------------------|
|-0-------4-------|-3-------5-----5-|-0-------4-------|-3-------1--------|


|------0------------0---|-------0----------0-------|
|------0------------0---|-------0----------0-------|
|---4-------4----4----4-|-----4---4---5------------|
|---2-------2----2----2-|-----2---2---3------------|
|-----------------------|--------------------------|
|-0-----------4---------|--3--------5--------5-----|
|


Then the rest is electric

|-----------------------|--------------------------|
|-----------------------|--------------------------|
|-----11b13---9-(9)-----|-(9)----------------------|
|-----------------------|-------------7-9-10---9p7-|
|-----------------------|--------------------------|
|-----------------------|--------------------------|

|----------------------|---------------------------------|
|----------------------|---------------------------------|
|----------------------|---------------------------------|
|---9----(9)-----------|-(9)-----------------------------|
|----------------------|---------------------------------|
|----------------------|-------3-1---1-----1-----1-------|

|----------------------------------|--------------------------------------|
|----------------------------------|---------------------------10-12---12-|
|-----13b14r(13)-------------------|---12---(12)-(12)---(12)--------------|
|------------------14-(14)---12-14-|--------------------------------------|
|----------------------------------|--------------------------------------|
|----------------------------------|--------------------------------------|

|-------------------------------|
|-----15-12-15---12-(12)---15---|
|-------------------------------|
|-------------------------------|
|-------------------------------|
|-------------------------------|

|---12----(12)----------------|------------------------------|
|--------------------15-12----|--------12-12-(12)-(12)-------|
|--------------------------14-|-(14)-------------------------|
|-----------------------------|------------------------------|
|-----------------------------|------------------------------|
|-----------------------------|------------------------------|

|--------------------------------|----------------------------|
|-(12)---------------------------|-----17b21---17------17b20==|
|----------------12-9-12-9-(9)---|----------------------------|
|--------------------------------|----------------------------|
|--------------------------------|----------------------------|
|--------------------------------|----------------------------|

|--------------------16b17==(16)-|-(16)r---16-16-(16)-16-------18-|
|-(17)-(17)r---------------------|--------------------------------|
|--------------------------------|--------------------------------|
|--------------------------------|--------------------------------|
|--------------------------------|--------------------------------|
|--------------------------------|--------------------------------|

|----15---------------------------------------|
|-17----17------------------------------------|
|--------------15----15-----------------------|
|-----------------14----14----14-----11-14----|
|--------------------------16--------------12-|
|---------------------------------------------|

|----------15b17r(15)-15b17r(15)---|-13b15r(13)-13b15r(13)-13--------12---|
|----------------------------------|--------------------------------------|
|----------------------------------|--------------------------------------|
|-12-------------------------------|--------------------------------------|
|----------------------------------|--------------------------------------|
|----------------------------------|--------------------------------------|

|-10b12r(10)-10b12r(10)-10----(10)---10---------|
|---------------------------------------13------|
|--------------------------------------------12-|
|-----------------------------------------------|
|-----------------------------------------------|
|-----------------------------------------------|

|----------------------------------------------------------|
|----------------------------------------------------------|
|-12-10---12-10-12---(12)-(12)-(12)--------10-12---12b14---|
|---------------------------------------12-----------------|
|----------------------------------------------------------|
|----------------------------------------------------------|

|------x-x---15b17r(15)-15b17r(15)-15-----||-13b15r(13)-13b15r(13)-13--------12---|
|------x----------------------------------||--------------------------------------|
|------x----------------------------------||--------------------------------------|
|-12---x----------------------------------||--------------------------------------|
|-----------------------------------------||--------------------------------------|
|-----------------------------------------||--------------------------------------|

|-22b24r(22)-22b24r(22)-22----(22)-----20b21-17-20-|
|--------------------------------------------------|
|--------------------------------------------------|
|--------------------------------------------------|
|--------------------------------------------------|
|--------------------------------------------------|

|-17---17-----------------13b13.5-|
|---------20-20-------------------|
|---------------------------------|
|---------------------------------|
|---------------------------------|
|---------------------------------|

|-10-------10--------------------------------------20-------|
|----13b14----10-13-----------------------------------------|
|-------------------12b13r(12)-10----12-10------------------|
|---------------------------------12-------12---------------|
|---------------------------------------------12------------|
|-----------------------------------------------------17\---|

|---------------------|
|---------------------|
|---------------------|
|---------------------|
|---------------------|
|-3---x-x-3-1---x-x-1-|

|---------------------------------|---------------------|
|---------------------------------|---------------------|
|-------------------------3--3----|---------------------|
|---------0-------3---3-3-5--3-5/-|---------------------|
|-1---x-x---3-3-5---5----------5/-|---------------------|
|---------------------------------|-3---x-x-3-1---x-x-1-|

|-----------------------------------|-------------------|
|-----5-(5)-------------------------|-------------------|
|-----5-(5)------------5----5-------|-----3-------2-2-2-|
|--------------------5-7--5-7--5/---|---0---------0-0-0-|
|-3-3---------3-5-7-----------------|-----------0-------|
|---------------------------------x-|-3-----3-1---------|

|-------------------------------------|
|-------------------------------------|
|-----0---(0)-------------------------|
|---0-----------------------3---3--3--|
|-1-----------1-3-5--x-3-5--5-3-5--5--|
|-------------------------------------|

|---------------------|---------------------------|
|---------------------|-----5-6---x-6---x-6-6-----|
|---------------2-2-2-|-----5-5---x-5---x-5-5-----|
|---5-3-5-----0-0-0-0-|-----------x-5---x-5-5-5-x-|
|---------------------|-3-3-----------------------|
|-3-------3-1---------|---------------------------|

|---------------------------------------15----------------|
|-------------------18b20====(18)-(18)r----18-15----------|
|----------15------------------------------------17-15----|
|-15-17------------------------------------------------17-|
|---------------------------------------------------------|
|---------------------------------------------------------|

|---------------------18b20---[18]b20-[18]b20-[18]b20-[18]b20-|
|-------------------------------------------------------------|
|-17----15---17-----------------------------------------------|
|----17-------------------------------------------------------|
|-------------------------------------------------------------|
|-------------------------------------------------------------|

|-[18]b20-[18]b20-[18]b20-[18]b20-[18]b20-18--15-----------18b20==(18)r-18--15--------|
|------------------------------------------------18-15-------------------------18-15--|
|-------------------------------------------------------------------------------------|
|-------------------------------------------------------------------------------------|
|-------------------------------------------------------------------------------------|
|-------------------------------------------------------------------------------------|

|-18b20-18b20====(18)-(18)-(18)r-15-------15------------------------------------------------|
|-----------------------------------18b20----18-18--------------------------------20-20b22==|
|--------------------------------------------------17b19r(17)-15----17----15-17------19b21==|
|----------------------------------------------------------------17----15-------------------|
|-------------------------------------------------------------------------------------------|
|-------------------------------------------------------------------------------------------|

|---------------------------------------------------------------------------------------|
|-(20)-(20)r-20-------------------------------------------------------------------------|
|-(19)-(19)r----[17]b19-[17]b19-[17]b19-[17]b19-[17]b19-[17]b19-15----17b18r(17)-15-----|
|------------------------------------------------------------------17---------------17--|
|---------------------------------------------------------------------------------------|
|---------------------------------------------------------------------------------------|

|-----------------------------------3-6-|
|-------------------------------6b8-3-3-|
|-17b19-15----15-17-------x-x-----------|
|-------------------------x-x-----------|
|---------------------------------------|
|---------------------18\---------------|

|------------------------8-----10-(10)-8-10-8b8.5-|
|-3-----------5-----8-10--------------------------|
|---5-(5)-3---5-3-7-------------------------------|
|-----------5-------------------------------------|
|-------------------------------------------------|
|-------------------------------------------------|

|-----------------------------------------------------------|
|---17b21====(17)-(17)r-15-15-(15)---15---15-17-------20b21-|
|-----------------------------------------------------------|
|-----------------------------------------------------------|
|-----------------------------------------------------------|
|-----------------------------------------------------------|

|-17----------17-19-19-17-19-19-(19)-17-17-19-20-|-22b24-22b24---22b24-22b24---24-(24)------22b24|
|----20b22-20------------------------------------|-----------------------------------------------|
|------------------------------------------------|-----------------------------------------------|
|-----------------------------------------------|------------------------------------------------|
|------------------------------------------------|-----------------------------------------------|
|------------------------------------------------|-----------------------------------------------|

|-22b23---22b23----------x--20b23====(20)-(20)r-17-19-20-|
|---------------x--------x-------------------------------|
|-----------------x--------------------------------------|
|-------------------x------------------------------------|
|---------------------x----------------------------------|
|--------------------------------------------------------|

|-20b23---20-19-17-19-(19)-19---19\-----|-------------------|
|---------------------------------------|-----0-------------|
|---------------------------------------|---------------0---|
|---------------------------------------|-------------2-----|
|---------------------------------------|-2-----0-(0)-------|
|-----------------------------------x-x-|-----------------x-|

|-----------------------------|
|-4-----8-----9-----4-4--4----|
|-----------------------------|
|-----------------------------|
|-----------------------------|
|-----------------------------|

|-------------------------|-----------------------------|
|-------------------------|-----------------------------|
|-----11b13-----9-(9)-----|-(9)-------------------------|
|-------------------------|-------------7-9-10-----9p7--|
|-------------------------|-----------------------------|
|-------------------------|-----------------------------|

|-----------------------|-------------------------------------------------|
|-----------------------|-------------------------------------------------|
|-----------------------|-----------------------------15---15---15---15---|
|---9-7-9-(9)-----------|-(9)-------------------------15---15---15---15---|
|-----------------------|-------------------------------------------------|
|-----------------------|-------3-1---1-----1-----1-----------------------|

|-----------------------------------|
|-----------------------------------|
|-----13b14r(13)--------------------|
|------------------14-(14)---12-14--|
|-----------------------------------|
|-----------------------------------|

|--------------------------------------|
|---------------------------10-12---12-|
|---12---(12)-(12)---(12)--------------|
|--------------------------------------|
|--------------------------------------|
|--------------------------------------|

|-----------------------|--------------------|
|-(12)---(12)-----------|-(12)---------------|
|-----------------------|--------------------|
|-----------------------|--------------------|
|-----------------------|--------------------|
|-----------------------|--------------------|

|-------------------------------|
|-----15-12-15---12-(12)---15---|
|-------------------------------|
|-------------------------------|
|-------------------------------|
|-------------------------------|

|---12----(12)----------------|------------------------------|
|--------------------15-12----|--------12-12-(12)-(12)-------|
|--------------------------14-|-(14)-------------------------|
|-----------------------------|------------------------------|
|-----------------------------|------------------------------|
|-----------------------------|------------------------------|

|--------------------------------------------|
|-(12)-----12------12------------------------|
|-------------14------14-----12-9-12-9-(9)---|
|--------------------------------------------|
|--------------------------------------------|
|--------------------------------------------|

|----------------------------|--------------------16b17==(16)--|
|-----17b21---17------17b20==|=(17)-(17)r----------------------|
|----------------------------|---------------------------------|
|----------------------------|---------------------------------|
|----------------------------|---------------------------------|
|----------------------------|---------------------------------|

|-(16)r-------17b19---19---(19)---18\-|-----x-----------------------------|
|---------------------------------18\-|-----x-------------------16-19---x-|
|---------------------------------18\-|---------------12-15-x-x-----------|
|-------------------------------------|---------11-14---------------------|
|-------------------------------------|-----------------------------------|
|-------------------------------------|-x---------------------------------|

|--------------15b17r(15)-15b17r(15)-15---|
|-15---x----------------------------------|
|-----------------------------------------|
|-----------------------------------------|
|-----------------------------------------|
|-----------------------------------------|

|-13b15r(13)-13b15r(13)-13--------12---|-10b12r(10)-10b12r(10)-10----(10)-8---10---------|
|--------------------------------------|-----------------------------------------13---10-|
|--------------------------------------|-------------------------------------------------|
|--------------------------------------|-------------------------------------------------|
|--------------------------------------|-------------------------------------------------|
|--------------------------------------|-------------------------------------------------|

|-------------------------------------------|
|----------------------10-10---10-10-10-10--|
|-12-10---12-12-10-----12-12---12-12-12-12--|
|-------------------------------------------|
|-------------------------------------------|
|-------------------------------------------|

|-----------------[15]b17r([15])-15-(15)---|-13b15r(13)-13b15r(13)-13------17b20r==(17)-----|
|-10-10------------------------------------|------------------------------------------------|
|-12-10------------------------------------|------------------------------------------------|
|---------12-12----------------------------|------------------------------------------------|
|------------------------------------------|------------------------------------------------|
|------------------------------------------|------------------------------------------------|

|-10b12r(10)-10b12r(10)-10--8---------10--------------|
|----------------------------------------13-10--------|
|----------------------------------------------12b14--|
|-----------------------------------------------------|
|-----------------------------------------------------|
|-----------------------------------------------------|

|----10---------------------------------10---------------10-10----10---------------10-------|
|-10----10-13------------------------------13-10---------10-10-------13-10-10---------13-10-|
|-------------10----12----10---------------------12b14------12b14----------12b14------------|
|----------------12----12-------------------------------------------------------------------|
|----------------------------12-10-12-------------------------------------------------------|
|-------------------------------------------------------------------------------------------|

|---------10----------------10----------10-------10-------------------------|
|------------10-10-------10----------10----13b15----10-13-------------------|
|-12b14------------12b14-------12b14----------------------12b14r12-10----12-|
|---------------------------------------------------------------------12----|
|---------------------------------------------------------------------------|
|---------------------------------------------------------------------------|
 
|-------------------20----20----20----20----20----20----|
|-------------------20b22-20b22-20b22-20b22-20b22-20-18-|
|-10---10--12-------------------------------------------|
|-------------------------------------------------------|
|-------------------------------------------------------|
|-------------------------------------------------------|

|-------------------------------------------------------|
|-20-18---20b22r(20)-(20)---------20---20-(20)-21-21-21-|
|-------------------------------------------------------|
|-------------------------------------------------------|
|-------------------------------------------------------|
|-------------------------------------------------------|

|--------------------------------------------22b25---|
|-20-18-20-[21]-21s20-18-20-20-18-20-18-20-----------|
|----------------------------------------------------|
|----------------------------------------------------|
|----------------------------------------------------|
|----------------------------------------------------|

|-22---22b25-----13b13.5-10----10-------------------------------|
|---------------------------13----13-13-------------------------|
|---------------------------------------12b13-12-10----12----10-|
|---------------------------------------------------12----12----|
|---------------------------------------------------------------|
|---------------------------------------------------------------|

|-------------------------------------------------------|
|----------------------------13-13-13-13----------------|
|-(10)-12-10-----------------14-14-14-14-12-10----12-10-|
|------------12-10--12-------------------------12-12-10-|
|-------------------------------------------------------|
|-------------------------------------------------------|

|----------------------------------------------------------|
|----------------------------------------------------------|
|-(10)------10---------------10----------------------------|
|-(10)-12-------12-----------10----------------------------|
|-------------------------------10-8-10-10b11r(10)----8-10-|
|--------------------------------------------------10------|

|--------------------------------------------------------------------|
|--------------------------------------------------------------------|
|--------------------------------------------------------------------|
|--------------------------------------------------------------------|
|-10b12-10b12====(10)r---10b12r(10)-10b12r(10)-10b12r(10)-10b12r(10)-|
|--------------------------------------------------------------------|

|-------------------------------------------------------------|
|-------------------------------------------------------------|
|-------------------------------------------------------------|
|-------------------------------------------------------------|
|-10b12r(10)-10b12r(10)-10b12r(10)-10b12r(10)-10b12r=(10)-----|
|-------------------------------------------------------------|

|-----------------------------|-----0---0-----0-|------*|
|-----------------------------|-------6-----6---|------*|
|-----------------------------|---7-------------|------*|
|-----------------------------|-----------7-----|------*|
|-12b13r(12)------------------|-5---------------|-5----*|
|------------12b13r(12)-12----|-----------------|------*|
comments
We did not receive enough feedback on this tab! Please rate:
print report bad tab
1 2 3 4 5
I want to post or [tab]
guest
You may want to rate the tab now too:
select rating
Please do not post tabs as comments. Select "correction" instead!