Oops, an error
Loading. Please wait.

Headless Horseman Tab

1,033 views 1 this week
no commentswrite comment
1 2 3 4 5
worth learning
x 1
add to favorites launch autoscroll
font size
0
reset
Autoscroll
+/-
esc
set tempo
stop
Contributor
WARNING: You are trying to view
                                    content from Ultimate-Guitar.com
                                    in an unauthorized application,
                                    which is prohibited.

                                    Please use an official Ultimate
                                    Guitar Tabs application for iPhone,
                                    iPad or Android to access legitimate
                                    chords, guitar, bass, and drum tabs
                                    from Ultimate-Guitar.com database.

                                    Type "ultimate guitar tabs" in Apple
                                    App Store's or Android Market's
                                    search to find the application.
                              THE HEADLESS HORSEMAN
                           As recorded by Joe Satriani
                     (From the 1986 Album NOT OF THIS EARTH)

Music by Joe Satriani
Transcribed by www.mikesguitarsite.co.uk

    Q=197
   4/4
    Gtr I
        T       T       T       T         T       T       T       T
||----------------------------------|----------------------------------||
||o---------------------------------|---------------------------------o||
||----------------------------------|----------------------------------||
||----------------------------------|----------------------------------||
||o----12p0----12p0----12p0----12p0-|----12p0----12p0----12p0----12p0-o||
||--h5------h5------h5------h5------|-h5------h5------h5------h5-------||


    $
         T       T       T       T
||-----------------------------------|
||o----------------------------------|
||-----------------------------------|
||-----------------------------------|
||o-----12p0----12p0----12p0----12p0-|
||--7h8------h5------h3------h5------|


       T       T       T       T          T        T        T       T
|----------------------------------|-------------------------------------|
|----------------------------------|-------------------------------------|
|----------------------------------|-------------------------------------|
|----------------------------------|-------------------------------------|
|-----12p0----12p0----12p0----12p0-|-----12p0-----12p0-----12p0----12p0--|
|-7h8------h5------h3------h5------|-7h8------h10------7h8------h5-------|


  1.
      T       T       T       T
|----------------------------------||
|---------------------------------o||
|----------------------------------||
|----------------------------------||
|----12p0----12p0----12p0----12p0-o||
|-h3------h3------h5------h5-------||


  2.
      T       T       T       T          T       T       T       T
|---------------------------------|----------------------------------|
|---------------------------------|----------------------------------|
|---------------------------------|----------------------------------|
|---------------------------------|-----12p0----12p0----12p0----12p0-|
|----12p0----12p0----12p0----12p0-|-7h8------h5------h3------h3------|
|-h3------h3------h5------h5------|----------------------------------|


       T       T       T       T
|----------------------------------|
|----------------------------------|
|----------------------------------|
|-----12p0----12p0----12p0----12p0-|
|-7h8------h5------h3------h3------|
|----------------------------------|


       T        T        T       T         T       T       T       T
|------------------------------------|---------------------------------|
|------------------------------------|---------------------------------|
|------------------------------------|---------------------------------|
|-----12p0-----12p0-----12p0----12p0-|----12p0----12p0----12p0---------|
|-7h8------h10------7h8------h5------|-h2------h2------h3------h3-12-0-|
|------------------------------------|---------------------------------|


       T       T       T       T          T       T       T       T
|----------------------------------|----------------------------------|
|----------------------------------|----------------------------------|
|----------------------------------|----------------------------------|
|----------------------------------|----------------------------------|
|-----12p0----12p0----12p0----12p0-|-----12p0----12p0----12p0----12p0-|
|-7h8------h5------h3------h5------|-7h8------h5------h3------h5------|


       T        T        T       T
|--------------------------------------|
|--------------------------------------|
|--------------------------------------|
|--------------------------------------|
|-----12p0-----12p0-----12p0----12p0---|
|-7h8------h10------7h8------h5--------|


      T       T       T       T
|---------------------------------||
|---------------------------------||
|---------------------------------||
|---------------------------------||
|----12p0----12p0----12p0---------||
|-h3------h3------h5------h5-12p0-||


       T       T      T      T         T       T
|--------------------------------|---------------------------------|
|--------------------------------|---------------------------------|
|--------------------------------|---------------------------------|
|--------------------------------|----------------------------12p0-|
|--------------------------------|-----------------h7------h7------|
|-5h7-12p0-h7-12p0-5h12p0-3h12p0-|-h5-12p0-h7-12p0----12p0---------|


         T       T       T       T         T       T        T        T
|------------------------------------|-----------------------------------|
|------------------------------------|-----------------------------------|
|------------------------------------|-----------------------------------|
|-h7s10-12p0-h9-12p0-h7-12p0-h5-12p0-|-h7-12p0-h9-12p0-6h7-12p0-6h7-12p0-|
|------------------------------------|-----------------------------------|
|------------------------------------|-----------------------------------|


 6/4
       T        T        T        T        T        T
|-------------------------------------------------------|
|-------------------------------------------------------|
|-------------------------------------------------------|
|-6h7-12p0-6h7-12p0-6h7-12p0-6h7-12p0-6h7-12p0-6h7------|
|--------------------------------------------------12p0-|
|-------------------------------------------------------|


   4/4
         T       T       T       T
||-------------------------------------||
||o-----------------------------------o||
||-------------------------------------||
||-------------------------------------||
||o-----12p0----12p0----12p0----12p0--o||
||--7h8------h5------h3------h5--------||


                                                                To Coda
       T        T        T       T         T       T       T       T
|------------------------------------|----------------------------------||
|------------------------------------|----------------------------------||
|------------------------------------|----------------------------------||
|------------------------------------|----------------------------------||
|-----12p0-----12p0-----12p0----12p0-|----12p0----12p0----12p0----12p0--||
|-7h8------h10------7h8------h5------|-h3------h3------h5------h5-------||


 6/4
      T       T       T       T       T       T
|-------------------------------------------------|
|-------------------------------------------------|
|-------------------------------------------------|
|-------------------------------------------------|
|----12p0----12p0----12p0----12p0----12p0----12p0-|
|-h5------h5------h5------h5------h5------h5------|


 4/4
      T       T       T       T
|---------------------------------|
|---------------------------------|
|---------------------------------|
|-----------------h4--------------|
|----12p0-h3-12p0----12p0-h3-12p0-|
|-h2------------------------------|


      T               T       T           T       T       T       T
|---------------------------------||----------------------------------|
|---------------------------------||o---------------------------------|
|---------------------------------||----------------------------------|
|---------------------------------||------------------h4--------------|
|----12p0-5p0h3p0----12p0----12p0-||o----12p0-h3-12p0----12p0-h3-12p0-|
|-h2--------------h5------h5------||--h2------------------------------|


      T               T       T
                                    3x
|-----------------------------------||
|----------------------------------o||
|-----------------------------------||
|-----------------------------------||
|----12p0-5p0h3p0----12p0----12p0--o||
|-h2--------------h5------h5--------||


        T               T       T
||-----------------------------------||
||o---------------------------------o||
||-----------------------------------||
||-----------------------------------||
||o----12p0-5p0h3p0----12p0----12p0-o||
||--h5--------------h5------h5-------||


                                    D.S. al Coda
 6/4
      T               T       T       T       T
|-------------------------------------------------||
|-------------------------------------------------||
|-------------------------------------------------||
|-------------------------------------------------||
|----12p0-5p0h3p0----12p0----12p0----12p0----12p0-||
|-h5--------------h5------h5------h5------h5------||


    &
   4/4
         T        T        T       T         T       T       T       T
                                                                          4x
||-------------------------------------|----------------------------------||
||o------------------------------------|---------------------------------o||
||-------------------------------------|----------------------------------||
||-----------------------------h5------|----------------------------------||
||o-6h7h12p0h5h6h12p0h3h5h12p0----12p0-|----12p0-h3-12p0----12p0----12p0-o||
||-------------------------------------|-h3--------------h5------h5-------||


        T       T       T       T               T       T       T       T
                                     3x
||-----------------------------------||-||-----------------------------------||
||o---------------------------------o||-||o---------------------------------o||
||-----------------------------------||-||-----------------------------------||
||-----------------------------------||-||-----------------------------------||
||o----12p0-h3-12p0----12p0----12p0-o||-||o----12p0----12p0----12p0----12p0-o||
||--h3--------------h5------h5-------||-||--h3------h3------h3------h3-------||


      T       T       T       T
|---------------------------------|-----------*|
|---------------------------------|-----------*|
|---------------------------------|-----------*|
|---------------------------------|-----------*|
|----12p0----12p0----12p0----12p0-|-----------*|
|-h5------h5------h5------h5------|-h5--------*|



***************************************************************************************
* Generated using Power Tab Editor by Brad Larsen - http://powertab.guitarnetwork.org *
***************************************************************************************
comments
We did not receive enough feedback on this tab! Please rate:
print report bad tab
1 2 3 4 5
I want to post or [tab]
guest
You may want to rate the tab now too:
select rating
Please do not post tabs as comments. Select "correction" instead!