Oops, an error
Loading. Please wait.

Headless Tab

ver1
ver1

Whole song

Interactive

More versions @911Tabs.com
544 views 1 this week
no commentswrite comment
1 2 3 4 5
excellent!
x 1
Autoscroll
+/-
esc
set tempo
stop
Contributor
WARNING: You are trying to view
                                    content from Ultimate-Guitar.com
                                    in an unauthorized application,
                                    which is prohibited.

                                    Please use an official Ultimate
                                    Guitar Tabs application for iPhone,
                                    iPad or Android to access legitimate
                                    chords, guitar, bass, and drum tabs
                                    from Ultimate-Guitar.com database.

                                    Type "ultimate guitar tabs" in Apple
                                    App Store's or Android Market's
                                    search to find the application.
                                    HEADLESS
                           As recorded by Joe Satriani
                  (From the 1989 Album FLYING IN A BLUE DREAM)

Music by Joe Satriani
Transcribed by www.mikesguitarsite.co.uk

 Intro
  Q=288(8=s8)
 4/4
  Gtr I
      T       T                      T       T             T       T
|------------------|---------||----------------------|-----------------------||
|------------------|---------||o---------------------|----------------------o||
|------------------|---------||----------------------|-----------------------||
|------------------|---------||----------------------|-----------------------||
|----12p0----12----|---------||o----12p0----12p0-h5--|----12p0----12p0------o||
|-h5------h8-------|---------||--h5------h8----------|-h5------h5------h5----||


  Gtr II
|---------------------|---------------------|
|-14------14------14--|-14------14------14--|
|-14------------------|---------------------|
|---------------------|---------------------|
|---------------------|---------------------|
|---------------------|---------------------|
|
| Gtr I
|     T       T             T       T
|---------------------|---------------------|
|---------------------|---------------------|
|---------------------|---------------------|
|---------------------|---------------------|
|----12p0----12p0-h5--|----12p0----12p0-----|
|-h5------h8----------|-h5------h5------h5--|


|---------------------|---------------------||
|-14------------------|-14------14------14--||
|---------------------|-14------14------14--||
|---------------------|---------------------||
|---------------------|---------------------||
|---------------------|---------------------||
|
|     T       T             T       T
|---------------------|---------------------||
|---------------------|---------------------||
|---------------------|---------------------||
|---------------------|---------------------||
|----12p0----12p0-h5--|----12p0----12p0-----||
|-h5------h8----------|-h5------h5------h5--||


  Gtr I
      T       T              T       T
|----------------------|---------------------|
|----------------------|---------------------|
|----------------------|---------------------|
|----------------------|---------------------|
|----12p0-h7-12p0--h9--|----12p0----12p0-----|
|-h5------h8------h10--|-h5------h5------h5--|


      T       T              T       T
|----------------------|---------------------|
|----------------------|---------------------|
|----------------------|---------------------|
|----------------------|---------------------|
|----12p0-h7-12p0--h9--|----12p0----12p0-----|
|-h5------h8------h10--|-h5------h5------h5--|


  Gtr II
|----------------------|---------------------|
|----------------------|-14------14------14--|
|----------------------|---------------------|
|----------------------|---------------------|
|----------------------|---------------------|
|----------------------|---------------------|
|
| Gtr I
|     T       T              T       T
|----------------------|---------------------|
|----------------------|---------------------|
|----------------------|---------------------|
|----------------------|---------------------|
|----12p0-h7-12p0--h9--|----12p0----12p0-----|
|-h5------h8------h10--|-h5------h5------h5--|


          \7____/     \7
|--------------------------------|-----------------10b12====|
|--------------------------------|--------------------------|
|---------5---(<5>)-(<5>)--------|--------------------------|
|--------------------------------|--------------------------|
|--------------------------------|--------------------------|
|--------------------------------|--------------------------|
|
|     T               T                T       T
|--------------------------------|--------------------------|
|--------------------------------|--------------------------|
|--------------------------------|--------------------------|
|--------------------------------|--------------------------|
|----12p0------h7----12p==0--h9--|----12p0----12p0----------|
|-h5-----------h8-----------h10--|-h5------h5------h5-------|


|-(10)r----9--------------|-----9--------------9h12-|
|------------10-10--------|-10---------10-----------|
|---------------------12--|-------------------------|
|-------------------------|-------------------------|
|-------------------------|-------------------------|
|-------------------------|-------------------------|
|
|        T       T              T       T
|-------------------------|-------------------------|
|-------------------------|-------------------------|
|-------------------------|-------------------------|
|-------------------------|-----------------h7------|
|-------12p0-h7-12p0--h9--|----12p0-h7-10p0------10p|
|--h5--------h8------h10--|-h5----------------------|


|----------------------|----------------------|
|----------------------|----------------------|
|----------------------|----------------------|
|----------------------|----------------------|
|----------------------|----------------------|
|----------------------|----------------------|
|
|     T       T              T       T
|----------------------|----------------------|
|----------------------|----------------------|
|----------------------|----------------------|
|----------------------|-----------------h7---|
|--0-12p0-h7-12p0--h9--|----12p0-h7-10p0------|
|-h5------h8------h10--|-h5-------------------|


|----------------------|----------14s15---------------|
|----------------------|-------15---------------15----|
|----------------------|------------------------------|
|----------------------|------------------------------|
|----------------------|------------------------------|
|----------------------|------------------------------|
|
|     T       T              T              T
|----------------------|------------------------------|
|----------------------|------------------------------|
|----------------------|------------------------------|
|----------------------|------------------------h7----|
|----12p0-h7-12p0--h9--|----12p=======0-h7-10p0----10p|
|-h5------h8------h10--|-h5---------------------------|


                                          ~~
|-----------------------------------|----------------------------||
|-15b17r(15)p===13------------------|-12s14---------(14)\--------||
|------------------14-12-14-14------|-12s14---------(14)\--------||
|-----------------------------------|----------------------------||
|-----------------------------------|----------------------------||
|-----------------------------------|----------------------------||
|
|             T           T                  T        T
|-----------------------------------|----------------------------||
|-----------------------------------|----------------------------||
|-----------------------------------|----------------------------||
|-----------------------------------|-----------------------h7---||
|--0---------12p====0-h7-12p=0--h9--|-------12p0-h7--10p==0------||
|-h5------------------h8-------h10--|----h5----------------------||


||-----------------------|-----------------------|----------------------|
||o----------------------|-----------------------|----------------------|
||-----------------------|-----------------------|----------------------|
||-----------------------|-----------------------|----------------------|
||o----------------------|-----------------------|----------------------|
||-----------------------|-----------------------|----------------------|
|
|       T       T              T       T               T       T
||-----------------------|-----------------------|----------------------|
||o----------------------|-----------------------|----------------------|
||-----------------------|-----------------------|----------------------|
||-----------------------|-----------------h7----|----------------------|
||o----12p0-h7-12p0--h9--|----12p0-h7-10p0----10p|==0-12p0-h7-12p0--h9--|
||--h5------h8------h10--|-h5--------------------|-h5------h8------h10--|


 1.                       2.
                                   \7____/     \7
|----------------------||--------------------------------||
|---------------------o||----------7---(<7>)-(<7>)-------||
|----------------------||--------------------------------||
|----------------------||--------------------------------||
|---------------------o||--------------------------------||
|----------------------||--------------------------------||
|
|     T       T                T               T
|----------------------||--------------------------------||
|---------------------o||--------------------------------||
|----------------------||--------------------------------||
|-----------------h7---||----------------------------h7--||
|----12p0-h7-10p0-----o||-----12p0------h7----10p==0-----||
|-h5-------------------||--h5----------------------------||


                          <
|----------------------|-----------------------------|
|----------------------|-16b16.5=====================|
|----------------------|-16b16.5=====================|
|----------------------|-----------------------------|
|----------------------|-----------------------------|
|----------------------|-----------------------------|
|
|     T       T                    T       T       T
|----------------------|-----------------------------|
|----------------------|-----------------------------|
|----------------------|-----------------------h7----|
|----12p0-h7-12p0--h9--|----------12p0-h7-10p0----10p|
|-h5------h8------h10--|-h5--------------------------|
|----------------------|-----------------------------|


|------------------------|-----------------------|
|-(16)-------------------|-(16)------------------|
|-(16)-------------------|-(16)------------------|
|------------------------|-----------------------|
|------------------------|-----------------------|
|------------------------|-----------------------|
|
|       T       T                T       T
|------------------------|-----------------------|
|------------------------|-----------------------|
|------------------------|-------------------h7--|
|---0--12p0-h7-12-0--h9--|------12p0-h7-10p0-----|
|--h5--------8------h10--|--h8-------------------|
|------------------------|-----------------------|


|----------------------------|-------------------------|
|-(16)b17====================|=(16)--------------------|
|-(16)b17====================|=(16)--------------------|
|----------------------------|-------------------------|
|----------------------------|-------------------------|
|----------------------------|-------------------------|
|
|           T       T                T       T       T
|----------------------------|-------------------------|
|----------------------------|-------------------------|
|----------------------------|-------------------h7----|
|----------12p0-h7-12p0--h9--|------12p0-h7-10p0----10p|
|--h5-----------h8------h10--|--h5---------------------|
|----------------------------|-------------------------|


|------------------------|------------------------|
|-(16)-------------------|-(16)r------------------|
|-(16)-------------------|-(16)r------------------|
|------------------------|------------------------|
|------------------------|------------------------|
|------------------------|------------------------|
|
|       T       T                 T       T
|------------------------|------------------------|
|------------------------|------------------------|
|------------------------|--------------------h7--|
|---0--12p0-h7-12-0--h9--|-------12p0-h7-10p0-----|
|--h5--------8------h10--|--h8--------------------|
|------------------------|------------------------|


                ~~~~~~~~~~~~~~~~~~~~~~~~~~~~~~~~~~~~
|------------------------|-------------------------|
|----------14-(14)-------|-(14)--------------------|
|-14----12-14-(14)-------|-(14)--------------------|
|------------------------|-------------------------|
|------------------------|-------------------------|
|------------------------|-------------------------|
|
|     T         T                T       T
|------------------------|-------------------------|
|------------------------|-------------------------|
|------------------------|-------------------------|
|------------------------|-------------------h7----|
|----12p=0-h7--12p0--h9--|------12p0-h7-10p0----10p|
|-h5-------h8-------h10--|--h5---------------------|


 ~~~~~~
|---------------------------|----------------------|
|-(14)---------(14)\--------|----------------------|
|-(14)---------(14)\--------|----------------------|
|---------------------------|---------------14p13--|
|---------------------------|----------------------|
|---------------------------|----------------------|
|
|       T        T                T       T
|---------------------------|----------------------|
|---------------------------|----------------------|
|---------------------------|----------------------|
|---------------------------|------------------h7--|
|---0--12p0-h7--12p==0--h9--|----12p0-h7-10p=0-----|
|--h5-------h8---------h10--|-h5-------------------|


|-------------------------|-----------------------|
|-------------------------|-----------------------|
|--------------[14]-------|-14--------------------|
|-(13)--------------------|-----------------------|
|-------------------------|-----------------------|
|-------------------------|-----------------------|
|
|       T        T              T       T
|-------------------------|-----------------------|
|-------------------------|-----------------------|
|-------------------------|-----------------------|
|-------------------------|-----------------h7----|
|------12p0-h7--12p0--h9--|----12p0-h7-10p0----10p|
|--h5-------h8-------h10--|-h5--------------------|


|------------------------|---------------------||
|------------------------|---------------------||
|-(14)-------------------|---------------------||
|------------------------|---------------------||
|------------------------|---------------------||
|------------------------|---------------------||
|
|       T       T              T       T
|------------------------|---------------------||
|------------------------|---------------------||
|------------------------|---------------------||
|------------------------|-----------------h7--||
|---0--12p0-h7-12p0--h9--|----12p0-h7-10p0-----||
|--h5-------h8------h10--|-h5------------------||


||----------------------|---------------------|
||o---------------------|---------------------|
||---9-------9-------9--|--9-------9-------9--|
||----------------------|---------------------|
||o---------------------|---------------------|
||----------------------|---------------------|
|
|       T       T             T       T
||----------------------|---------------------|
||o---------------------|---------------------|
||----------------------|---------------------|
||----------------------|---------------------|
||o-h7------h7------h7--|-h8------h8------h8--|
||-----12p0----12p0-----|----10p0----10p0-----|


                       1.
|---------------------|-----------------------||
|---------------------|----------------------o||
|--9-------9-------9--|--9-------9-------9----||
|---------------------|-----------------------||
|---------------------|----------------------o||
|---------------------|-----------------------||
|
|     T       T             T       T
|---------------------|-----------------------||
|---------------------|----------------------o||
|---------------------|-----------------------||
|---------------------|-----------------------||
|-h7------h7------h7--|-h7------h7------h5---o||
|----12p0----12p0-----|----13p0----13p0-------||


  2.
|---------------------|---------------------|---------------------|
|---------------------|---------------------|---------------------|
|--9-------9-------9--|--9-------9-------9--|--9-------9-------9--|
|---------------------|---------------------|---------------------|
|---------------------|---------------------|---------------------|
|---------------------|---------------------|---------------------|
|
|     T       T             T       T             T       T
|---------------------|---------------------|---------------------|
|---------------------|---------------------|---------------------|
|---------------------|---------------------|---------------------|
|---------------------|---------------------|---------------------|
|-h5------h5------h5--|-h3------h3------h3--|-h2------h2------h2--|
|----12p0----12p0-----|----12p0----12p0-----|----12p0----12p0-----|


|---------------------------|----------------------|
|---------------------------|----------------------|
|-9s=8b9====================|=(8)------------------|
|---------------------------|----------------------|
|---------------------------|----------------------|
|---------------------------|----------------------|
|
|          T       T               T       T
|---------------------------|----------------------|
|---------------------------|----------------------|
|---------------------------|----------------------|
|---------------------------|----------------------|
|---------12p0-h7-12p0--h9--|-----12p0----12p0-----|
|---h5---------h8------h10--|-h5-------h5------h5--|


|-----------------------|--------------------------|
|-----------------------|---------10---------------|
|-(8)-------------------|-(8)r--------9\-----------|
|-----------------------|--------------------------|
|-----------------------|--------------------------|
|-----------------------|--------------------------|
|
|      T       T                T         T
|-----------------------|--------------------------|
|-----------------------|--------------------------|
|-----------------------|--------------------------|
|-----------------------|--------------------------|
|-----12p0-h7-12p0--h9--|------12p=0-----12p0------|
|-h5-------h8------h10--|-h5---------h5-------h5---|


|----------------------|---------------------|
|----------------------|---------------------|
|----------------------|---------------------|
|----------------------|---------------------|
|----------------------|---------------------|
|----------------------|---------------------|
|
|     T       T              T       T
|----------------------|---------------------|
|----------------------|---------------------|
|----------------------|---------------------|
|----------------------|---------------------|
|----12p0-h7-12p0--h9--|----12p0----12p0-----|
|-h5------h8------h10--|-h5------h5------h5--|


                                 \7____/     \7
|----------------------|--------------------------------|
|----------------------|---------7---(<7>)-(<7>)--------|
|----------------------|--------------------------------|
|----------------------|--------------------------------|
|----------------------|--------------------------------|
|----------------------|--------------------------------|
|
|     T       T              T               T
|----------------------|--------------------------------|
|----------------------|--------------------------------|
|----------------------|--------------------------------|
|----------------------|--------------------------------|
|----12p0-h7-12p0--h9--|----12p0------------12p==0------|
|-h5------h8------h10--|-h5-----------h5-----------h5---|


|----------------------|----15----------(15)--------|
|----------------------|----16b17=======(16)r---15--|
|----------------------|----------------------------|
|----------------------|----------------------------|
|----------------------|----------------------------|
|----------------------|----------------------------|
|
|     T       T              T            T
|----------------------|----------------------------|
|----------------------|----------------------------|
|----------------------|----------------------------|
|----------------------|----------------------------|
|----12p0-h7-12p0--h9--|----12p====0-----12p==0-----|
|-h5------h8------h10--|-h5----------h5---------h5--|


|----------------------|---------------------|
|-13-------------------|---------------------|
|----14----------------|---------------------|
|----------------------|---------------------|
|----------------------|---------------------|
|----------------------|---------------------|
|
|     T       T              T       T
|----------------------|---------------------|
|----------------------|---------------------|
|----------------------|---------------------|
|----------------------|---------------------|
|----12p0-h7-12p0--h9--|----12p0----12p0-----|
|-h5------h8------h10--|-h5------h5------h5--|


|----------------------|-------12------(12)--------|
|----------------------|----15---------------15----|
|----------------------|------------------------14-|
|----------------------|---------------------------|
|----------------------|---------------------------|
|----------------------|---------------------------|
|
|     T       T                 T        T
|----------------------|---------------------------|
|----------------------|---------------------------|
|----------------------|---------------------------|
|----------------------|---------------------------|
|----12p0-h7-12p0--h9--|-------12p0-----12p0-------|
|-h5------h8------h10--|-h5---------h5-------h5----|


                                    \7____/     \7
|-------------------------|--------------------------------||
|-------------------------|--------------------------------||
|-12h14-------------------|---------5---(<5>)-(<5>)--------||
|-------14----------------|--------------------------------||
|-------------------------|--------------------------------||
|-------------------------|--------------------------------||
|
|        T       T              T               T
|-------------------------|--------------------------------||
|-------------------------|--------------------------------||
|-------------------------|--------------------------------||
|-------------------------|--------------------------------||
|-------12p0-h7-12p0--h9--|----12p0------------12p==0------||
|-h5---------h8------h10--|-h5-----------h5-----------h5---||


                                                   3x
||--------15----------14--|-12----14-12------------||-------15----------14--|
||o-------17----------15--|-14----15-14-----------o||-------17----------14--|
||------------------------|------------------------||-----------------------|
||------------------------|------------------------||-----------------------|
||o-----------------------|-----------------------o||-----------------------|
||------------------------|------------------------||-----------------------|
|
|       T        T              T        T                T        T
|                                                  3x
||------------------------|------------------------||-----------------------|
||o-----------------------|-----------------------o||-----------------------|
||------------------------|------------------------||-----------------------|
||------------------------|------------------------||-----------------------|
||o----12p=0-h7-12p0--h9--|----12p=0-h7-12p0--h9--o||----12p=0-h7-12p0--h9--|
||--h5-------h8------h10--|-h5-------h8------h10---||-h5-------h8------h10--|


|-12----------------15-(15tr19)--|
|-14----15-------17--------------|
|--------------------------------|
|--------------------------------|
|--------------------------------|
|--------------------------------|
|
|     T        T
|--------------------------------|
|--------------------------------|
|--------------------------------|
|--------------------------------|
|----12p=0-h7-12p====0--h9-------|
|-h5-------h8----------h10-------|


|-(15tr19)-------------------|-(15tr19)--------------------|
|----------------------------|-----------------------------|
|----------------------------|-----------------------------|
|----------------------------|-----------------------------|
|----------------------------|-----------------------------|
|----------------------------|-----------------------------|
|
|           T       T                    T       T
|----------------------------|-----------------------------|
|----------------------------|-----------------------------|
|----------------------------|-----------------------------|
|----------------------------|-----------------------------|
|----------12p0-h7-12p0--h9--|----------12p0-h7-12p0--h9---|
|--h5-----------h8------h10--|--h5-----------h8------h10---|


|-(15tr19)---------19----17--|-19----17----15----14--|-12----14-12-------14--||
|------------------20----19--|-20----19----17----15--|-14----15-14-------15--||
|----------------------------|-----------------------|-----------------------||
|----------------------------|-----------------------|-----------------------||
|----------------------------|-----------------------|-----------------------||
|----------------------------|-----------------------|-----------------------||
|
|           T       T              T        T              T        T
|----------------------------|-----------------------|-----------------------||
|----------------------------|-----------------------|-----------------------||
|----------------------------|-----------------------|-----------------------||
|----------------------------|-----------------------|-----------------------||
|----------12p0-h7-12p0--h9--|----12p=0-h7-12p0--h9--|----12p=0-h7-12p0--h9--||
|--h5-----------h8------h10--|-h5-------h8------h10--|-h5-------h8------h10--||


                           3x
||--15----14-15-------14---||-----------------------------------|
||o-17----15-17-------15--o||-15b17r(15)(15)b17==========(15)r--|
||-------------------------||-----------------------------------|
||-------------------------||-----------------------------------|
||o-----------------------o||-----------------------------------|
||-------------------------||-----------------------------------|
|
|       T        T                    T              T
|                          3x
||-------------------------||-----------------------------------|
||o-----------------------o||-----------------------------------|
||-------------------------||-----------------------------------|
||-------------------------||-----------------------------------|
||o----12p=0-h7-12p0--h9--o||--------12p==0------h7-12p0--h9----|
||--h5-------h8------h10---||-h5-----------------h8------h10----|


|---------------------------|---------------------------|----------------------------||
|---------------------------|---------------------------|----------------------------||
|--9tr14--------------------|-(9tr14)-------------------|-(9tr14)--------------------||
|---------------------------|---------------------------|----------------------------||
|---------------------------|---------------------------|----------------------------||
|---------------------------|---------------------------|----------------------------||
|
|         T       T                    T       T                   T       T
|---------------------------|---------------------------|----------------------------||
|---------------------------|---------------------------|----------------------------||
|---------------------------|---------------------------|----------------------------||
|---------------------h7----|---------------------------|----------------------h7----||
|--------12p0-h7-10p0----10p|==0------12p0-h7-12p0--h9--|---------12p0-h7-10p0-------||
|-h5------------------------|-h5-----------h8------h10--|-h5-------------------------||


 Free Time
                                      \7____/     \7
|--------------------:--------------:-----------------------*|
|--------------------:--------------:-7---(<7>)-(<7>)-------*|
|-(9tr14)------------:--------------:-----------------------*|
|--------------------:--------------:-----------------------*|
|--------------------:--------------:-----------------------*|
|--------------------:--------------:-----------------------*|
|
|--------------------:--------------:-----------------------*|
|--------------------:--------------:-----------------------*|
|--------------------:--------------:-----------------------*|
|--------------------:--------------:-----------------------*|
|-------------10s12--:-12s==10------:-----(10)--------------*|
|-h5-----------------:-(5)----------:------(5)--------------*|



***************************************************************************************
* Generated using Power Tab Editor by Brad Larsen - http://powertab.guitarnetwork.org *
***************************************************************************************
comments
We did not receive enough feedback on this tab! Please rate:
print report bad tab
1 2 3 4 5
I want to post or [tab]
guest
You may want to rate the tab now too:
select rating
Please do not post tabs as comments. Select "correction" instead!