Oops, an error
Loading. Please wait.

Hill Groove Tab

ver1
ver1

Whole song

Interactive

More versions @911Tabs.com
2,885 views 1 this week
no commentswrite comment
1 2 3 4 5
accurate
x 2
Autoscroll
+/-
esc
set tempo
stop
Contributor
Hey! There's an official Ultimate Guitar app which is ideal
for learning songs when you're away from computer. Get the app
WARNING: You are trying to view
                                    content from Ultimate-Guitar.com
                                    in an unauthorized application,
                                    which is prohibited.

                                    Please use an official Ultimate
                                    Guitar Tabs application for iPhone,
                                    iPad or Android to access legitimate
                                    chords, guitar, bass, and drum tabs
                                    from Ultimate-Guitar.com database.

                                    Type "ultimate guitar tabs" in Apple
                                    App Store's or Android Market's
                                    search to find the application.
-------------------------------------------------------------------------------
                  Hill Groove - Joe Satriani
-------------------------------------------------------------------------------

Tabbed by: Grant Smith
Email: Bulletproof__cupid@hotmail.com

Tuning: Standard

Gtr I (E A D G B E) - 'Joe Satriani - lead w/dist'
Gtr II (E A D G B E) - 'Joe Satriani - lead w/dist'


Gtr I
~~~~~~~~~~                       ~~
S   W          H    Q  S  S S  S     +E  E  S S  S S Q  S  S S  S
|---|----------|-------------------||-------------------------------|
|---|----------|--------------8-11-||-(11)---11-8--------------8-11-|
|---|----------|---------9-10------||-------------10-9----9-10------|
|---|----------|-------------------||-------------------------------|
|---|----------|-------------------||-------------------------------|
|---|----------|-------------------||-------------------------------|


~~~~                     ~~~~~~~~~                   ~~~
+Q    S S  S S Q  S  S S  S    +Q    S S  S S Q  E  S S
|------------------------------|---------------------------|
|-(11)--11-8--------------8-10-|-(10)--10-8----------------|
|------------10-9----9-10------|------------10-9----9-10-9-|
|------------------------------|---------------------------|
|------------------------------|---------------------------|
|------------------------------|---------------------------|


~~~~~                         ~~
+E  S S  S S S  S Q  S  S S  S
|---------------------------------|
|---------------------------8-11--|
|-(9)------------------9-10-------|
|-------8-10-7-8------------------|
|----------------10---------------|
|---------------------------------|


~~~~                     ~~~
+Q    S S  S S Q  S  S S  S
|------------------------------|
|-(11)--11-8--------------8-11-|
|------------10-9----9-10------|
|------------------------------|
|------------------------------|
|------------------------------|


~~~~~~                            ~~~~~~~~~                       ~
|-3--|
+S  S  S S  S S  S S Q  S  S S  S    +Q    S S  S S S Q  E  S a S
|------8----8------------------------|-------------------------------|
|-(11)---11---11-8--------------8-10-|-(10)--10p8--------------------|
|------------------10-9----9-10------|------------10-9-7----9-10-8h9-|
|------------------------------------|-------------------------------|
|------------------------------------|-------------------------------|
|------------------------------------|-------------------------------|


C7
+E  S S  S S S  S Q   E S S    E E  E S  S E E E  E
|-----------------------------||----------------------|
|-----------------------------||----------------------|
|-(9)------------------10-8-9-||----------------------|
|-------8-10-7-8-------10-----||-----------8----------|
|----------------10-----------||-----12---10-------12-|
|-----------------------------||---8--8-8------8----8-|


e E  E S  S S S  S  S  S  E S
|--------------------------------|
|--------------------------------|
|--------------------------------|
|------------8--------------10-x-|
|-10---12---10--------------10-x-|
|--8-8--8-8------0-10-11-12------|


To Coda
e E  E S S S S E  e  E    e E  E S  S S  S  S  S  S  S  S  S
|------------------------|-------------------------------------|
|------------------------|-------------------------------------|
|------------------------|-------------------------------------|
|----------8-------------|------------8---------------10-12----|
|-----12-----------12-12-|-10---12---10---------------10-12-12-|
|-8-8--8-8-----0-8--8--8-|--8-8--8-8------10-10-11-12----------|


e E  E S S E E  S S  S S
|---------------------------|
|---------------------------|
|----------------------10---|
|-----------8----------10-8-|
|-10---12---------12-x------|
|----8----8-----8-----------|


PM
+S   S E  E  S S S S  S  S  S  S S S
|--------------------------------------|
|--------------------------------------|
|----------------9---------------------|
|-(8)------------8--------------10-x-x-|
|-----10---12-10----------------10-x-x-|
|--------8-----------0-10-11-12--------|


~~
e E  E S S S S E  S S S S   +S   S E  E S  S Q   S  S  S  S
|----------------------------|---------------------------15-18--||
|----------------------------|---------------------17-18--------||
|----------------------------|----------------------------------||
|-----------8--------------8-|-(8)------------------------------||
|-10---12-----------12-x-8---|-----10-x-10---10-----------------||
|----8--8-8-----8-8----------|-------------8--------------------||


~~~~                                                                    ~~~
+Q    S  S  S  S Q   S  S  S  S    +S   S  S  S  S  S  S  S Q   S  S  S  S
|-(18)--18-15----------------15-18-|-(18)p15-18p15-18-15----------------15-17-|
|-------------18-17----17-18-------|---------------------18-17----17-18-------|
|----------------------------------|------------------------------------------|
|----------------------------------|------------------------------------------|
|----------------------------------|------------------------------------------|
|----------------------------------|------------------------------------------|


~~~~~~
+Q    S  S  S  S Q   E  a      +S   +S
|-(17)--17-15-------------------------------|
|-------------18-15----17-17b18==(17)r(17)--|
|-------------------------------------------|
|-------------------------------------------|
|-------------------------------------------|
|-------------------------------------------|


~~~
+E  S  S  S  S  S  S S  S E  S  S  S  S
|------------------------------------15-18-|
|-(17)-------------------------17-18-------|
|--------15-17-14-15-----------------------|
|--------------------17---14---------------|
|------------------------------------------|
|------------------------------------------|


~~~~~~
+Q    S  S  S  a     +S  Q   S  S  S  S
|-(18)--18-15------------------------15-18--|
|-------------18-16b17-(16)----17-18--------|
|-------------------------------------------|
|-------------------------------------------|
|-------------------------------------------|
|-------------------------------------------|


~~~
+S       +S   +S       +S   +S   S  S  a     +S  Q   S  S  S  S
|-(18)b20==(18)r(18)b20==(18)r(18)-15------------------------15-17-|
|-------------------------------------18-16b17-(16)----17-18-------|
|------------------------------------------------------------------|
|------------------------------------------------------------------|
|------------------------------------------------------------------|
|------------------------------------------------------------------|


~~~~~~                                    ~~~~
|--3--|
+Q    S  S  S  S  S Q   E  a      +S   +S
|-(17)--17p15---------------------------------|
|-------------18-17-15----17-17b18==(17)r(17)-|
|---------------------------------------------|
|---------------------------------------------|
|---------------------------------------------|
|---------------------------------------------|


~~~~
+E  S  S  S  S  S  S H
|----------------------------||
|-(17)-----------------------||
|--------15-17-14-15---------||
|--------------------17------||
|----------------------------||
|----------------------------||


C7
~~~~~~~
|-3--| |-3-|
S  S S  S  +Q    +E  E Q    Q  E. S  E E  E E E E
|---------------------------|-----------------------|
|---------------------------|-------------------8---|
|-9-10---10-(10)--(10)s7----|------------7-10-9-----|
|---------------------------|-------8-10------------|
|---------------------------|-----------------------|
|---------------------------|-----------------------|


~~~~~~~~~
|--3--|
Q  E.  S  S  S  S  E  E  S  S    +Q   E a   +E  Q   S  S  E
|-------------------------------|-----------------------------|
|-------10h11p10----10----------|-----------------------10-11-|
|----------------12----12-10-12-|-(12)----8b9-(8)----12-------|
|-------------------------------|-----------------------------|
|-------------------------------|-----------------------------|
|-------------------------------|-----------------------------|


a  E  S  S  +E   E  +E  S  S  +Q
|--------------------------8-----------|
|-17s15-15-15-(15)s11-(11)-------------|
|----------------------------10-(10)---|
|--------------------------------------|
|--------------------------------------|
|--------------------------------------|


~~~~~~~~~~~
|--3--|
+E  S  S E E Q  a   +E  E  E   S  S E  E.  S  +E  E   E  E
|-------------------------------|-----------------------------|
|------8-10----------------8-10-|-----------------------------|
|-(10)------7------8b9-(8)------|-8---------------------------|
|-------------------------------|---10-8-10--10-(10)-7-[10]---|
|-------------------------------|-----------------------------|
|-------------------------------|-----------------------------|


S  S  S  S  a  S  S  E  +Q    Q
|------------------------------17\---||
|---------------------13-(13)--------||
|------------------12----------------||
|---------10h12s14-------------------||
|---10-12----------------------------||
|------------------------------------||


Am                     F             C
Gtr I
~~~~~~~~~
E  a     +E   E  E  a     +E   E  S  S  E    +E   E      +E.      +S   H
|-------------------------------------------|---------------------------------|
|---15b16-(15)-15-13-15b16-(15)-15-13----13-|-(13)-15b16==(15)b17==(15)r------|
|-------------------------------------14----|---------------------------------|
|-------------------------------------------|---------------------------------|
|-------------------------------------------|---------------------------------|
|-------------------------------------------|---------------------------------|
|
| Gtr II
|                                         ~~~~~~~~~
| E  a     +E   E  E  a     +E   E  S  S  E    +E   E      +E.      +S   H
|-------------------------------------------|---------------------------------|
|---15b16-(15)-15-13-15b16-(15)-15-13----13-|-(13)-15b16==(15)b17==(15)r------|
|----7b8---(7)--7--5--7b8---(7)--7--5-14--5-|--(5)--7b8====(7)b9====(7)r------|
|--------------------------------------7----|---------------------------------|
|-------------------------------------------|---------------------------------|
|-------------------------------------------|---------------------------------|


Am                  F                          C
~~
a     +E   E  E  E  a     +E   a     +E           E  E
|---------------------------------------------------------|
|-15b16-(15)-15-13----16b18-(16)-16b17-(16)------------13-|
|------------------15-------------------------------------|
|---------------------------------------------------------|
|---------------------------------------------------------|
|---------------------------------------------------------|
|
|                                                       ~~
|  a     +Q      E  E  a     +E          S      +S   E  E
|---------------------------------------------------------|
|-15b16-(15)----15-13-16b18-(16)--------16b17==(16)r---13-|
|--7b8---(7)-----7--5--8b10--(8)---------8b9====(8)r----5-|
|---------------------------------------------------------|
|---------------------------------------------------------|
|---------------------------------------------------------|


Am                        F              C
~~~~~~~~~~~~~
+Q.    +E       H               a     +Q    E  E  a       +S   +S   E E  E
|-------------------------------|-------------------------------------------------|
|-(13)---(13)\------------------|-15b16-(15)--15-13-15pb16==(15)r(15)p13---15b17==|
|-------------------------------|-------------------------------------------------|
|-------------------------------|-------------------------------------------------|
|-------------------------------|-------------------------------------------------|
|-------------------------------|-------------------------------------------------|
|
|   ~~~~
|  +Q.     E      +E    E   Q      a     +Q    E  E  a       +S   +S   E E  E
|-------------------------------|-------------------------------------------------|
|-(13)-----------------13-------|-15b16-(15)--15-13-15pb16==(15)r(15)p13---15-----|
|--(5)----15b16==(15)r------5---|--7b8---(7)---7--5--7b8-----(7)-------7-5--7-----|
|---------------------------5---|-------------------------------------------------|
|-----------------------6-7-----|-------------------------------------------------|
|-------------------------------|-------------------------------------------------|
+H              E    S S E E    a     +Q    E  E  a       +E        E E  E


~~
+E    e Q            S   a       +S   +E   E  E
|-------15-------------15--------------------------|
|-(15)r--------------------15pb16==(15)r(15)-13----|
|--------------------------------------------------|
|--------------------------------------------------|
|--------------------------------------------------|
|--------------------------------------------------|
|
|  +E    e Q   a       +S           +S    E   E  E
|-------15-----------------------------------------|
|-(15)---8----15pb16==(15)r========(15)p=13--15-13-|
|--(7)---------7pb8====(7)r=========(7)p==5---7--5-|
|--------------------------------------------------|
|--------------------------------------------------|
|--------------------------------------------------|
+E    e Q   a       +S           +S    E   E  E


Am                 F                     C
~~~~~~~~~~~~
a     +Q    E E  a       +S   +S   E E  a      +E
|-15b17-(15)--15--------------------------18b20==(18)-|
|------------------15pb16==(15)r(15)p13---------------|
|-----------------------------------------------------|
|-----------------------------------------------------|
|-----------------------------------------------------|
|-----------------------------------------------------|
|
|                                          ~~~~~~~~~~~~
|  a     +Q    E E  a       +S   +S   E E  a      +E
|-15b17-(15)--15--------------------------18b20==(18)-|
|--8b10--(8)---8---15pb16==(15)r(15)p13---11b13==(11)-|
|-------------------7pb8====(7)r=(7)p=5---------------|
|-----------------------------------------------------|
|-----------------------------------------------------|
|-----------------------------------------------------|


~~~~~~~
+W            W
|-(18)r--------|-----------------|
|--------------|-----------------|
|--------------|-----------------|
|--------------|-----------------|
|--------------|-----------------|
|--------------|-----------------|
|
|~~~~~~~
|  +W            Q  S E  S  H
|-(18)r--------|----3s5--5s=3----|
|-(11)r--------|-----------------|
|--------------|----3s5-(5)s3----|
|--------------|-----------------|
|--------------|-----------------|
|--------------|-----------------|


C7
Gtr I
a a S S E S E S E e S S E   S E S E e S S E E E
|---------------------------|---------------------|
|---------------------------|---------------------|
|-----5---------------------|---------------------|
|---x---8p5-8---8---8---8---|-8---8---8---7---7---|
|-x-------------------------|---------------------|
|---------------------------|---------------------|


S S S S S S S S S S S S S S S S
|---------------------------------|
|---------------------------------|
|---------------------------------|
|-7-8---5-------5---5-7-8-5-7-5---|
|-----------8-----8-------------8-|
|---------------------------------|


S S S S Q  S   S  S  S S S S S
|--------------------------------|
|--------------------------------|
|---5----------------------------|
|------------8------7----------5-|
|-7---8-5------(10)---10---7h8---|
|--------------------------------|


S S S S S S E e  S  S S  E.    +Q   Q  Q  S  T  T  e
|--------------------10-8-----|-------------------------|
|-----------6---8-11----------|-------------------------|
|---5-----7---9-----------10--|-(10)----------14p12s10--|
|-7-----8---------------------|-------------------------|
|-----------------------------|-------------------------|
|-----------------------------|-------------------------|


S  S  S  S  S  S S  S  +S   S  S  S Q
|----------10-----------------------------|
|----10-11----11-13---13-(13)-11----------|
|-12-----------------------------12-10----|
|-----------------------------------------|
|-----------------------------------------|
|-----------------------------------------|


S S     S  S S  S S  S S  S E S S S S
|--------------------------------------8s=|
|-----------------------------------------|
|-10-8b8.5-------------------------7s9----|
|------------10---10---10---10------------|
|-----------------------------------------|
|-----------------------------------------|


E. S E. a S +E  S  S E.  S
|-6--8------------8-10-------|
|---------6s8-(8)---------12-|
|----------------------------|
|----------------------------|
|----------------------------|
|----------------------------|


|--3--|           |--3--|  |----------9:8----------|    |-----5-----|
S  S  S  E  S  S  S  S  S  T  T  T  T  T  T  T  T  T E  T  T  T  T  T
|-12h13p12-12-12-12p10----10-------------------12h13h15---15p13p12s10h12-|
|----------------------13----13p11p10s11h13h15---------------------------|
|------------------------------------------------------------------------|
|------------------------------------------------------------------------|
|------------------------------------------------------------------------|
|------------------------------------------------------------------------|


|----------10:8------------|     |--3--|
T  T  T  T  T  T  T  T  T  T  T  T  T  T  T  T  T  T  e  S  S  S  T  T  T  T  T  T  S
|-13p12p10----10-------------------12h13h15p13p12s13h15h17-17p15p13s12-13h15p13p10h13S18-|
|----------13----13p11p10s11h13h15-------------------------------------------------------|
|----------------------------------------------------------------------------------------|
|----------------------------------------------------------------------------------------|
|----------------------------------------------------------------------------------------|
|----------------------------------------------------------------------------------------|


+T   T  T  T  E  T  T  T  T  T  T  T  T  T  T S  T T  T  T  T  T  T  T  T T  T  T
|-(18)s17p15p13-17-15p13s12-13h15p13p12----13s10p8-10p7S17p13-15p12--------------------|
|---------------------------------------13--------------------------13-----------------|
|----------------------------------------------------------------------14p12s9---------|
|------------------------------------------------------------------------------10------|
|---------------------------------------------------------------------------------10s==|
|--------------------------------------------------------------------------------------|


|------7------|
E S S  S E S S S  S S S S  S T T  T T T  T T T
|------------------------------------------------|
|------------------------------------------------|
|-------------------------------------7h9h10p9p7-|
|---------------------7h8p7----7h8h10------------|
|-8---7-10p7---7h8h10-------10-------------------|
|------------------------------------------------|


~
|-----7------| |-------10:8--------|
E T  T T T S S S  S S S S T T  T T T T T  T T T T  T T T E
|--------------------------------------------------------------|
|--------------------------------------------------------------|
|-9-9h10p9p7-9-9-9-10p7-9-9-9-9-10p9p7-9-9-10p9p7-9h10p9p7-9/--|
|--------------------------------------------------------------|
|--------------------------------------------------------------|
|--------------------------------------------------------------|


|--3--|                                          |-3--|
S  S  S  S  S  T  T  T  T S  S S  S T  T T T S S S S  S
|-------13-15-12-------------------------------------------|
|----15----------13-15-13p11s8-11p8----8-------------------|
|-15--------------------------------11---10s9p8h9-7-9-7----|
|-------------------------------------------------------10-|
|----------------------------------------------------------|
|----------------------------------------------------------|


|-------11:8--------|
T  T T T  T T T  T T T T  T T  T T T E. T T T T T T T T T T T T T
|-------------------------------------------------------------------|
|-------------------------------------------------------------------|
|-7---------------------------------------------3h5h7p5p3s2h3h5p3p2-|
|---10p8p7-10p8p7----7h8p7----7-----------3h5h7---------------------|
|-----------------10-------10---10p8p7------------------------------|
|-------------------------------------------------------------------|


|------9:8------|
T T T T T T T T T T T T T T T T T T T T T T T T T T T T T T T T T
|-------------------------------------------------------------------|
|-------------------------------------------------------------------|
|-3h5p3p2s3-7p3h5h7p5p3-7p3h5h7p5p3---3h5h7p5p3-7p3-5p3---3-5h7p5p3-|
|-----------------------------------7-------------------7-----------|
|-------------------------------------------------------------------|
|-------------------------------------------------------------------|


|------9:8------|                                 |------9:8------|
T T T T T T T T T T T T T T T T T T T T T T T T T T T T T T T T T T
|----------------------------------------------------------------------|
|----------------------------------------------------------------------|
|-3h5h7p5p3---3-5h7p5p3-7p3-5p3---3-5h7p5p3-5p3-----5h7p5p3------------|
|-----------7-------------------7---------------7p3---------5p3s2h3h5--|
|----------------------------------------------------------------------|
|----------------------------------------------------------------------|


|------9:8------| |-------11:8--------|  |-------9:8--------| |------6------|
T T T T T T T T T T T T T T T T T T T T  T T T  T T T T  T  T S  S  S S  S  S
|--------------------------------------------------------------------------------|
|--------------------------------------------------------------------------------|
|---------------------------------------------------------------9h10h12p9s10-10h=|
|-3p2s3h5-7p5p3------------------------------7h8h10p8p7s8h10h12------------------|
|---------------7p3h5h7p5p3s5h7h8p7p5s7h8h10-------------------------------------|
|--------------------------------------------------------------------------------|


~~                            ~~~
E  E  +S   E.S S S  S      S S   E
|-----------------8-----------8---/13-|
|-------------1s8---8-11b11.5---8-----|
|-12-12-(12)\-------------------------|
|-------------------------------------|
|-------------------------------------|
|-------------------------------------|


~~~~~~~~~~~~                                   ~~
+E   E  E  S   S      +E   T T T T   S  S S  S
|-(13)-13-13-13--------------------------------13-|
|---------------/16b17==(16)r-x-------------------|
|-------------------------------x-----/15---------|
|---------------------------------x---------------|
|-----------------------------------x-----15------|
|-------------------------------------------------|


~~~~~~~~~                               ~~~
+E   E  E  S  S  +E       +E    S  S  S  S
|-(13)-13-13-13-11-(11)b12==(11)r-------------|
|---------------------------------13p11-13-13-|
|---------------------------------------------|
|---------------------------------------------|
|---------------------------------------------|
|---------------------------------------------|


~~~~~~~      ~~~~~~~~
+S   S  S  S  +S   S  S  S  +S     E  S  E E
|---------------------------------------15-17---|
|-(13)p11-13-13-(13)p11-13-13-(13)\-/17---------|
|-----------------------------------------------|
|-----------------------------------------------|
|-----------------------------------------------|
|-----------------------------------------------|


~~~~~~
a     +S   E.  Q   S      +S    Q.
|-20b22-(20)-20--20--22b24==(22)r-------||
|---------------------------------------||
|---------------------------------------||
|---------------------------------19\---||
|---------------------------------------||
|---------------------------------------||
|
| Gtr II
|         W
|---------------------------------------||
|---------------------------------------||
|---------------------------------------||
|---------------------------------------||
|---------------------------------------||
|---------------------------------------||


Am                       F             C
~~
E  a     +E   E  E  a     +E   E  S  S  E
|-------------------------------------------|
|---15b16-(15)-15-13-15b16-(15)-15-13----13-|
|-------------------------------------14----|
|-------------------------------------------|
|-------------------------------------------|
|-------------------------------------------|
|
|                                         ~~
| E  a     +E   E  E  a     +E   E  S  S  E
|-------------------------------------------|
|---15b16-(15)-15-13-15b16-(15)-15-13----13-|
|----7b8---(7)--7--5--7b8---(7)--7--5-14--5-|
|--------------------------------------7----|
|-------------------------------------------|
|-------------------------------------------|


~~~~                                  ~~~~~~~~~~~
+E   E      +S       +S    E        S  E.  E.  S
|----------------------------------------------------|
|-(13)-15b16==(15)b17==(15)r-------------------------|
|----------------------------14\---------------------|
|----------------------------------------10--10--10/-|
|----------------------------------------------------|
|----------------------------------------------------|
|
|   ~~~~
|  +E   E      +E.                +S   H
|----------------------------------------------------|
|-(13)-15b16==(15)b17============(15)r---------------|
|--(5)--7b8====(7)b9==============(7)r---------------|
|----------------------------------------------------|
|----------------------------------------------------|
|----------------------------------------------------|


Am                             F                   C
~~
E   a      +E   +E   E  a     +E   S      +S   E  E
|-------------------------------------------------------------|
|------------15b16==(15)r(15)p13-16b18-(16)-16b17==(16)r---13-|
|-------------------------------------------------------------|
|-------------------------------------------------------------|
|-------------------------------------------------------------|
|-------------------------------------------------------------|
|
|                                                           ~~
|  a     +Q                E   E  a     +E   S      +S   E  E
|-------------------------------------------------------------|
|-15b16-(15)--------------15--13-16b18-(16)-16b17==(16)r---13-|
|--7b8---(7)---------------7---5--8b10--(8)--8b9====(8)r----5-|
|-------------------------------------------------------------|
|-------------------------------------------------------------|
|-------------------------------------------------------------|


Am                            F                              C
~~~~~~~~~~~~~~~~~~~~~~~~~~
+E   E  E.         S  +E    e   Q             E   a     +E   E  E           E       
a       +S   +S   E  E
|--------------------------------------|--------------------------------------15-----------------------------------|
|-(13)-13-13---------13-(13)-----------|------------15b16-(15)-15-13-------------------15pb16==(15)r(15)p13-15b17==|
|-----------------------------14-------|---------------------------------------------------------------------------|
|--------------------------------------|---------------------------------------------------------------------------|
|--------------------------------------|---------------------------------------------------------------------------|
|--------------------------------------|---------------------------------------------------------------------------|
|
|   ~~~~
|  +Q.         E         +E    E   Q      a     +Q              E  E  a       +S   +S
           E        E  E
|--------------------------------------|---------------------------------------------------------------------------|
|-(13)------------------------13-------|-15b16-(15)------------15-13-15pb16==(15)r(15)p=========13----------15-----|
|--(5)--------15b16=====(15)r------5---|--7b8---(7)-------------7--5--7b8-----(7)----------------7--------5--7-----|
|----------------------------------5---|---------------------------------------------------------------------------|
|------------------------------6-7-----|---------------------------------------------------------------------------|
|--------------------------------------|---------------------------------------------------------------------------|
+H                     E    S S E E    a     +Q              E  E  a       +E        
        E        E  E


~~~~~~~~~~~~~~~~
+E    e  a     +E   E           E        e  E  e
|-------15--------------------------------------------|
|-(15)r----15b17-(15)-13----------13----------13-15---|
|------------------------------------------14---------|
|-----------------------------------------------------|
|-----------------------------------------------------|
|-----------------------------------------------------|
|
|  +E    e         Q      a       +S   +S   E  E  E
|-------15--------------------------------------------|
|-(15)---8---------------15pb16==(15)r(15)p13-15-13---|
|--(7)--------------------7pb8====(7)r=(7)p=5--7--5---|
|-----------------------------------------------------|
|-----------------------------------------------------|
|-----------------------------------------------------|
+E    e         Q      a       +S   +S   E  E  E


Am                           F                       C
E   a     +Q     E  a       +E        E  E   a      +E
|------------15b17-(15)------------------------------/16b18==(16)-|
|----------------------------15b16---(15)------15-13--------------|
|-----------------------------------------------------------------|
|-----------------------------------------------------------------|
|-----------------------------------------------------------------|
|-----------------------------------------------------------------|
|
|                                                      ~~~~~~~~~~~~
|  a     +Q              E E  a       +S   +S   E  E   a      +E
|-15b17-(15)------------15----------------------------18b20==(18)-|
|--8b10--(8)-------------8---15pb16==(15)r(15)p13-----11b13==(11)-|
|-----------------------------7pb8====(7)r=(7)p=5-----------------|
|-----------------------------------------------------------------|
|-----------------------------------------------------------------|
|-----------------------------------------------------------------|


D.S. al Coda
~~~~~~~~~~~~~~~~~~~~
+Q     a  +Q    +E   +E    S  S S  S
|-(16)---16-(16)--(16)-(16)r\-----------||
|----------------------------------8-11-||
|-----------------------------9-10------||
|---------------------------------------||
|---------------------------------------||
|---------------------------------------||
|
|~~~~~~~
|  +W
|-(18)r---------------------------------||
|-(11)r---------------------------------||
|---------------------------------------||
|---------------------------------------||
|---------------------------------------||
|---------------------------------------||


&
e E  E S S S S S S  E S S   E E  E S S E E E  E
|----------------------------|---------------------|
|----------------------------|---------------------|
|-----------8-x-x-x-x-10-8-9-|---------------------|
|-----------8-x-x-x-x-10-----|----------8----------|
|-10---12--------------------|-----12-----------12-|
|--8-8--8-8------------------|---8----8-----8------|


e E  E  S S S S  S  S  S  S S S
|----------------------------------|
|----------------------------------|
|------------8---------------------|
|------------8--------------10-x-x-|
|-10---12-10-------------------x-x-|
|--8-8--8--------x-10-11-12--------|


e E  E S S E E  e  E    e E  E S S S S S S  E S S
|----------------------|----------------------------|
|----------------------|----------------------------|
|----------------------|-----------8-x-x-x-x-10-8-9-|
|-x---12---8-----------|-----------8-x-x-x-x-10-----|
|-x---12---------12-12-|-10---12--------------------|
|---8----8-----8--8--8-|--8-8--8-8------------------|


C7
E E  E S S E E e  E    e E  E  S S S S  S  S  S  S S S
|---------------------|----------------------------------|
|---------------------|----------------------------------|
|---------------------|------------8---------------------|
|-----12---8----------|------12----8--------------10-x-x-|
|-----12---------x-12-|-10---12-10----------------10-x-x-|
|---8----8-----8-x--8-|--8-8-----------x-10-11-12--------|


PM
e E  E S S E E  e  E    E  E  E  S S H
|----------------------|--------------------*|
|----------------------|--------------------*|
|----------8-----------|-------------8------*|
|-----12---8-----------|-------------8------*|
|-----12---------12-12-|-10-10-12-10--------*|
|-8-8----8-----8--8--8-|--8--8--8--8--------*|



===============================================================================
comments
We did not receive enough feedback on this tab! Please rate:
print report bad tab
1 2 3 4 5
I want to post or [tab]
guest
You may want to rate the tab now too:
select rating
Please do not post tabs as comments. Select "correction" instead!