Oops, an error
Loading. Please wait.

Hordes Of Locusts Tab

3,041 views 9 this week
no commentswrite comment
1 2 3 4 5
excellent!
x 1
add to favorites launch autoscroll
font size
0
reset
Autoscroll
+/-
esc
set tempo
stop
Contributor
WARNING: You are trying to view
                                    content from Ultimate-Guitar.com
                                    in an unauthorized application,
                                    which is prohibited.

                                    Please use an official Ultimate
                                    Guitar Tabs application for iPhone,
                                    iPad or Android to access legitimate
                                    chords, guitar, bass, and drum tabs
                                    from Ultimate-Guitar.com database.

                                    Type "ultimate guitar tabs" in Apple
                                    App Store's or Android Market's
                                    search to find the application.
                                HORDES OF LOCUSTS
                           As recorded by Joe Satriani
                     (From the 1986 Album NOT OF THIS EARTH)

Transcribed by www.mikesguitarsite.co.uk

          E5                   F#5              F#5(type 2)
      0 2 2 x x x          2 4 4 x x x          2 4 4 x x x

  Q=92
 4/4
  Gtr I
|----------------|----------------|
|----------------|----------------|
|----------------|----------------|
|----------------|----------------|
|----------------|----------------|
|----------------|----------------|
|
| Gtr II
|      PM------|        PM------|
|----------------|----------------|
|----------------|----------------|
|----------------|----------------|
|-2-4------------|-2-4------------|
|-2-4--4-4-4-4-4-|-2-4--4-4-4-4-4-|
|-0-2--2-2-2-2-2-|-0-2--2-2-2-2-2-|


|----------------------------|-----------------|
|----------------------------|-----------------|
|----------------------------|-----------------|
|----------------------------|-----------------|
|----------------------------|-----------------|
|------/x\-/x\-x-x---/x\-x---|-----------------|
|
|       PM-----------------|        PM------|
|----------------------------|-----------------|
|----------------------------|-----------------|
|----------------------------|-----------------|
|-2-4------------------------|-2-4-------------|
|-2-4---4------4---4-----4-4-|-2-4--4-4-4-4-4--|
|-0-2---2------2---2-----2-2-|-0-2--2-2-2-2-2--|


||-------------------|------------------------|
||o------------------|------------------------|
||-------------------|--------------3---3s4---|
||-------4-4h==5-2---|-(2)----4-4h5---5-------|
||o------------------|------------------------|
||-------------------|------------------------|
|
|        PM--------|          PM------------|
||-------------------|------------------------|
||o------------------|------------------------|
||-------------------|------------------------|
||--2-4--------------|--2--4------------------|
||o-2-4--4-4-4---4-4-|--2--4--4-4---4-----4-4-|
||--0-2--2-2-2---2-2-|--0--2--2-2---2-----2-2-|


|---------------------------------------------|-------------------------------||
|---------------------------------------------|------------------------------o||
|-(4)-3\------------------------<5>-----------|-------------------------------||
|-----------------------<5>-<4>---------<5>---|-------------------------------||
|---------------<5>-<4>-------------<4>-------|------------------------------o||
|-----------<4>-------------------------------|------/x\-/x\-x-x---/x\-x------||
|
|            PM-----------------------------|         PM-----------------|
|---------------------------------------------|-------------------------------||
|---------------------------------------------|------------------------------o||
|---------------------------------------------|-------------------------------||
|--2-----4------------------------------------|-2-4---------------------------||
|--2-----4---4-------4-------4-------4------4-|-2-4---4------4---4-----4-4---o||
|--0-----2---2-------2-------2-------2------2-|-0-2---2------2---2-----2-2----||


  $
  Gtr V
                                                               ~~
|----------------------------|-------------------------------------|
|------0---0---0-5-0-4-0-8-0-|-7-0-/12-0-10-0-/17-0-16-0-13-0-10---|
|--------5---4---------------|-------------------------------------|
|----------------------------|-------------------------------------|
|----------------------------|-------------------------------------|
|----------------------------|-------------------------------------|
|
|----------------------------|-------------------------------------|
|----------------------------|-------------------------------------|
|----------------------------|-------------------------------------|
|-2-4------------------------|-------------------------------------|
|-2-4------------------------|-------------------------------------|
|-0-2------------------------|-------------------------------------|


  Gtrs I, II
|-------------------------------------------------------------------|
|-------------------------------------------------------------------|
|-------------------------------------------------------------------|
|-------------------------------------------------------------------|
|-2h4p2p0h2h4p2p0h2h4p2p0h2h4p2p0h2h4p2p0h2h4p2p0h2h4p2p0h2h4p2p0h==|
|-------------------------------------------------------------------|


|-----------------------------------------------------------------|
|-----------------------------------------------------------------|
|-----------------------------------------------------------------|
|-----------------------------------------------------------------|
|-2h4p2p0h2h4p2p0h2h4p2p0h2h4p2p0h2h4p2p0h2h4p2p0h2h4p2p0-/(12)\--|
|-----------------------------------------------------------------|


  Gtr I
|------------------|------------------------|
|------------------|------------------------|
|------------------|--------------3---3s4---|
|------4-4h==5-2---|-(2)----4-4h5---5-------|
|------------------|------------------------|
|------------------|------------------------|
|
| Gtr II
|      PM--------|          PM------------|
|------------------|------------------------|
|------------------|------------------------|
|------------------|------------------------|
|-2-4--------------|--2--4------------------|
|-2-4--4-4-4---4-4-|--2--4--4-4---4-----4-4-|
|-0-2--2-2-2---2-2-|--0--2--2-2---2-----2-2-|


|---------------------------------------------|-------------------------------|
|---------------------------------------------|-------------------------------|
|-(4)-3\------------------------<5>-----------|-------------------------------|
|-----------------------<5>-<4>---------<5>---|-------------------------------|
|---------------<5>-<4>-------------<4>-------|-------------------------------|
|-----------<4>-------------------------------|------/x\-/x\-x-x---/x\-x------|
|
|            PM-----------------------------|         PM-----------------|
|---------------------------------------------|-------------------------------|
|---------------------------------------------|-------------------------------|
|---------------------------------------------|-------------------------------|
|--2-----4------------------------------------|-2-4---------------------------|
|--2-----4---4-------4-------4-------4------4-|-2-4---4------4---4-----4-4----|
|--0-----2---2-------2-------2-------2------2-|-0-2---2------2---2-----2-2----|


  ~                ~~~~~~~~~~~~~~~~~~~~
|-4--------------|-----------------|-7-------------|
|-6----------10--|-9---------------|-5----------3--|
|-4----------10--|-9---------------|-5----------3--|
|-7----------10--|-9---------------|-6----------3--|
|-5-----------7--|-8---------------|-8-------------|
|----------------|-----------------|------------4--|
|
| ~  PM----|  ~~~~~~~ PM--------|    ~  PM----| ~
|----------------|-----------------|---------------|
|----------------|-----------------|---------------|
|----------------|-----------------|---------------|
|----------------|-----------------|---------------|
|-5--5-5-5-5--7--|-8--8-8-8-8-8-8\-|---------------|
|----------------|-----------------|-5--5-5-5-5-4--|


  ~~~~~~~~~~~~~~~~~~~                ~~~~~~~~~~~~~~~~
|----------------|-----------------|----------------|
|-6--------------|-7----------/10--|-9--------------|
|-6--------------|-7----------/10--|-9--------------|
|-6--------------|-7----------/10--|-9--------------|
|----------------|-------------/7--|----------------|
|-3--------------|-6---------------|-8--------------|
|
| ~  PM--------|   ~  PM----|        ~  PM--------|
|----------------|-----------------|----------------|
|----------------|-----------------|----------------|
|----------------|-----------------|----------------|
|----------------|-----------------|----------------|
|----------------|-----------------|----------------|
|-3--3-3-3-3-3-3-|-6--6-6-6-6---0--|-8--8-8-8-8-8-8-|


           To Coda
 ~~~~~~~~~~~~~~~~~~~~~~
|-----------------|----------------------||
|-12--------------|-13-----------<3>-----||
|-12--------------|-13-----------<3>-----||
|-12--------------|-13-------------------||
|-----------------|----------------------||
|--9--------------|--9-------------------||
|
|  ~~ PM--------|    ~~ PM----|
|-----------------|----------------------||
|-----------------|----------------------||
|-----------------|----------------------||
|-----------------|----------------------||
|-----------------|----------------------||
|--9--9-9-9-9-9-9-|--9--9-9-9-0-/(9)\----||


|-----------------------|---------------------------|----------------|-----|
|-(<3>)\----------------|-----------------------7---|-(7)--(7)\------|-----|
|-(<3>)\----------------|------------3h4p3-/7p6-----|----------------|-----|
|-----------4-4h==5-2---|-(2)----4h5----------------|----------------|-----|
|-----------------------|---------------------------|----------------|-----|
|-----------------------|---------------------------|----------------|-----|
|
|           PM--------|          PM---------------|
|-----------------------|---------------------------|----------------|-----|
|-----------------------|---------------------------|----------------|-----|
|-----------------------|---------------------------|----------------|-----|
|---2----4--------------|--2--4---------------------|----------------|-----|
|---2----4--4-4-4---4-4-|--2--4--4-----4----4---4-4-|----------------|-----|
|---0----2--2-2-2---2-2-|--0--2--2-----2----2---2-2-|----------------|-----|


|---------|---------|--!x-(x)-!x-x-!(x)-x--|--------------|
|---------|---------|--!x-(x)-!x-x-!(x)-x--|--------------|
|---------|---------|--!x-(x)-!x-x-!(x)-x--|--4---(4)\----|
|---------|---------|----------------------|--4---(4)\----|
|---------|---------|----------------------|--4---(4)\----|
|---------|---------|----------------------|--------------|


                   ~~
|-14b15-(14)------14---(14)-12-14----|
|---------------------------------15-|
|------------------------------------|
|------------------------------------|
|------------------------------------|
|------------------------------------|
|
| Gtr II
|         ~~~~  PM-------------|
|------------------------------------|
|------------------------------------|
|------------------------------------|
|------------------------------------|
|------------------------------------|
|---------2--0--0--0-0---0------0----|


|-12--------------------------------------------|
|----14-15-12-14-11-12----11--------------------|
|----------------------14----12p11--------------|
|----------------------------------12-----------|
|-------------------------------------13s12p10\-|
|-----------------------------------------------|
|
|  ~~                PM---------------------|
|-----------------------------------------------|
|-----------------------------------------------|
|-----------------------------------------------|
|-----------------------------------------------|
|-----------------------------------------------|
|--2--------0--------0-----0-----0-----0-----0--|


     ~     ~     ~       ~                                     ~
|----------------------------|--------------------------------------|
|----------------------------|--------------------------------------|
|-/9s8---9s7---9s6---6s9s5---|-4-5p4s3-4-3-2-0----------------------|
|----------------------------|-----------------3s4-0----------------|
|----------------------------|-----------------------3s4-0---5s7----|
|----------------------------|-----------------------------0--------|
|
|  ~~~       PM------------|   ~             PM------------------|
|----------------------------|--------------------------------------|
|----------------------------|--------------------------------------|
|----------------------------|--------------------------------------|
|----------------------------|--------------------------------------|
|----------------------------|--------------------------------------|
|--2---0-----0-0---0---0---0-|-2-------0-----0-----0-----0-----0-0--|


|-12-14s10-12---14-14s12---12s10-12-14---12-12s10-10s9---9s7-|
|------------------------------------------------------------|
|------------------------------------------------------------|
|------------------------------------------------------------|
|------------------------------------------------------------|
|------------------------------------------------------------|
|
|  ~~                    PM----------------------------|
|------------------------------------------------------------|
|------------------------------------------------------------|
|------------------------------------------------------------|
|------------------------------------------------------------|
|------------------------------------------------------------|
|--2----------0----------0--------0----0--------0------0-----|


|-9-10-10s9---10-9---9s7-9p7s6---(6)--------|
|--------------------------------------(8)--|
|-------------------------------------------|
|-------------------------------------------|
|-------------------------------------------|
|-------------------------------------------|
|
| ~                PM----------------|
|-------------------------------------------|
|-------------------------------------------|
|-------------------------------------------|
|-------------------------------------------|
|-------------------------------------------|
|-2---------0------0---------0-0--0--0------|


                                                   ~
|-6h7p6-------6h7p6-------6h7p6-------6h7p6------------|
|-------8p7h8-------8p7h8-------8p7h8-------h8-8-7-----|
|--------------------------------------------------7---|
|------------------------------------------------------|
|------------------------------------------------------|
|------------------------------------------------------|
|
| ~~                      PM-------------------------|
|------------------------------------------------------|
|------------------------------------------------------|
|------------------------------------------------------|
|------------------------------------------------------|
|------------------------------------------------------|
|-2-----------0-----------0-------0-------0------0---0-|


|--------------------------------------------------------|
|--------------------------------------------------------|
|-7h9h11p9p7s6h7h9p7p6s7h9h11p9p7s6----------------------|
|-----------------------------------[8]-([8])-([8])\-----|
|----------------------------------------------------x---|
|----------------------------------------------------x---|
|
| ~~                                 PM----------------|
|--------------------------------------------------------|
|--------------------------------------------------------|
|--------------------------------------------------------|
|--------------------------------------------------------|
|--------------------------------------------------------|
|-2------------------0---------------0----0-----0----0-0-|


|----------------------------------------------------------------------------------|
|----------------------------------------------------------------------------------|
|-----------------------------------------6h7h9p7p6-6h7p6p4------------------------|
|-----------------------4h5h7p5p4s5h==7h9-------------------7p4h5h7p4h5h7p5p4s5h===|
|-------2h4h5p4p2s4h5h7------------------------------------------------------------|
|-2h3h5----------------------------------------------------------------------------|
|
| ~~                                PM----------------------------------|
|----------------------------------------------------------------------------------|
|----------------------------------------------------------------------------------|
|----------------------------------------------------------------------------------|
|----------------------------------------------------------------------------------|
|----------------------------------------------------------------------------------|
|-2-----------0---------------------0-----------0-------0-------0-------0----------|


|------------------------------------------------------------------------------------|
|------------------------------------------------------------------------------------|
|-----6h7h9p7p6s7h9h11p9p7------------------------8h10h12p10p8s7h8----------------9h=|
|-7h9----------------------11p7h9h11p7-11p8h10h12------------------h10-12p9h11h12----|
|------------------------------------------------------------------------------------|
|------------------------------------------------------------------------------------|
|
| ~~                          PM---------------------------------------|
|------------------------------------------------------------------------------------|
|------------------------------------------------------------------------------------|
|------------------------------------------------------------------------------------|
|------------------------------------------------------------------------------------|
|------------------------------------------------------------------------------------|
|-2-------------0-------------0---------0---------0----------0----------0------------|


|-------------------------------------------------------------------------------------------------------------|
|---------------------------------------------------------------12------12-14h15p14p12---------12h14h15p14p12-|
|-11h12p11p9-------------11h12h14p12p11-14h15p14p12----12h14h15----15------------------15p(12)----------------|
|------------14p11h12h14----------------------------15--------------------------------------------------------|
|-------------------------------------------------------------------------------------------------------------|
|-------------------------------------------------------------------------------------------------------------|
|
|  ~~~                                   PM--------------------------------|
|-------------------------------------------------------------------------------------------------------------|
|-------------------------------------------------------------------------------------------------------------|
|-------------------------------------------------------------------------------------------------------------|
|-------------------------------------------------------------------------------------------------------------|
|-------------------------------------------------------------------------------------------------------------|
|--2----------------0--------------------0-----------0-----------0----0-----0---------------------------------|


                                     ~~~~~~~
|-------------------------------------------------------|
|-12h14h15p14p12-----12h14h15p14p12---------------------|
|----------------h15----------------15-(15)---(15)\p(0)-|
|-------------------------------------------------------|
|-------------------------------------------------------|
|-------------------------------------------------------|
|
|  ~~~                               PM-------------|
|-------------------------------------------------------|
|-------------------------------------------------------|
|-------------------------------------------------------|
|-------------------------------------------------------|
|-------------------------------------------------------|
|--2------------------0--------------0---0--0---0----0--|


|-19b22==(19)r===19-[19]-[18]-[17]-[19]-[17]-----------------|
|--------------------------------------------[17]------[17]s=|
|-------------------------------------------------[16]-------|
|------------------------------------------------------------|
|------------------------------------------------------------|
|------------------------------------------------------------|
|
|          ~~~~~  PM------------------------------|
|------------------------------------------------------------|
|------------------------------------------------------------|
|------------------------------------------------------------|
|------------------------------------------------------------|
|------------------------------------------------------------|
|----------2--0---0---0---------0---------0---------0--------|


                                                     ~~
|------------------------------------------------------|
|-[15]------[15]s[14]--[13]-14-------------------------|
|------[14]--------------------15-13s11-------------12-|
|------------------------------------------------------|
|---------------------------------------13-14-13-14----|
|------------------------------------------------------|
|
|   ~~~~                     PM---------------------|
|------------------------------------------------------|
|------------------------------------------------------|
|------------------------------------------------------|
|------------------------------------------------------|
|------------------------------------------------------|
|---2--------------0---------0-----0-----0-----0-----0-|


|------------------15-12-14-15-14-12-------------------------------------|
|------------------------------------15-12-14-15-14-12-------------------|
|-12-------11-11---------------------------------------15-12-14-15-14-12-|
|------------------------------------------------------------------------|
|----12-13---------------------------------------------------------------|
|------------------------------------------------------------------------|
|
|  ~~            PM---------------------------------------|
|------------------------------------------------------------------------|
|------------------------------------------------------------------------|
|------------------------------------------------------------------------|
|------------------------------------------------------------------------|
|------------------------------------------------------------------------|
|--2--------0----0-----0-----------0-----------0-----------0-------------|


|---------------------------------------------------------------------------------|
|---------------------------------------------------------------------------------|
|---------------------------------------------------------------------------------|
|-h17-14h16h17p16p14--------------------------------------------------------------|
|--------------------h17-14h16h17p16p14s13-13h14h16p14p13-12b12.5-12b12.5-12b12.5-|
|---------------------------------------------------------------------------------|
|
|   ~~~                                  PM-------------------------------|
|---------------------------------------------------------------------------------|
|---------------------------------------------------------------------------------|
|---------------------------------------------------------------------------------|
|---------------------------------------------------------------------------------|
|---------------------------------------------------------------------------------|
|---2--------------0---------------------0--------0--------0-------0-------0------|


                   \1.5____________/0.5___
|----------------------------------------|
|-17b19==(17)r17-(17)-------(17)-(17)----|
|----------------------------------------|
|----------------------------------------|
|----------------------------------------|
|----------------------------------------|
|
|          ~~~~~
|----------------------------------------|
|----------------------------------------|
|----------------------------------------|
|----------------------------------------|
|----------------------------------------|
|----------2---0-------------------------|


    \0.5____/0.5____\0.5____________|
|----------------------------------------||
|-(17)----(17)----(17)----(17)----(17)\--||
|----------------------------------------||
|----------------------------------------||
|----------------------------------------||
|----------------------------------------||
|
|----------------------------------------||
|----------------------------------------||
|----------------------------------------||
|----------------------------------------||
|----------------------------------------||
|----------------------------------------||


|------------------|------------------------|
|------------------|------------------------|
|------------------|--------------3---3s4---|
|------4-4h==5-2---|-(2)----4-4h5---5-------|
|------------------|------------------------|
|------------------|------------------------|
|
|      PM--------|          PM------------|
|------------------|------------------------|
|------------------|------------------------|
|------------------|------------------------|
|-2-4--------------|--2--4------------------|
|-2-4--4-4-4---4-4-|--2--4--4-4---4-----4-4-|
|-0-2--2-2-2---2-2-|--0--2--2-2---2-----2-2-|


|---------------------------------------------|-------------------------------|
|---------------------------------------------|-------------------------------|
|-(4)-3\------------------------<5>-----------|-------------------------------|
|-----------------------<5>-<4>---------<5>---|-------------------------------|
|---------------<5>-<4>-------------<4>-------|-------------------------------|
|-----------<4>-------------------------------|------/x\-/x\-x-x---/x\-x------|
|
|            PM-----------------------------|         PM-----------------|
|---------------------------------------------|-------------------------------|
|---------------------------------------------|-------------------------------|
|---------------------------------------------|-------------------------------|
|--2-----4------------------------------------|-2-4---------------------------|
|--2-----4---4-------4-------4-------4------4-|-2-4---4------4---4-----4-4----|
|--0-----2---2-------2-------2-------2------2-|-0-2---2------2---2-----2-2----|


|--------------------|------------------------|
|--------------------|------------------------|
|--------------------|-----------------3-/7---|
|------4h5-4---5p2---|-(2)---4s5-4-4h5--------|
|--------------------|------------------------|
|--------------------|------------------------|
|
|      PM----------|             PM---------|
|--------------------|------------------------|
|--------------------|------------------------|
|--------------------|------------------------|
|-2-4----------------|--2--4------------------|
|-2-4--4---4-4---4-4-|--2--4-----4-4---4--4-4-|
|-0-2--2---2-2---2-2-|--0--2-----2-2---2--2-2-|


                                            D.S. al Coda
                                 /1.5______________|
         ~~~~~~
|--------------------|--------------------------------------||
|--------------------|--------------------------------------||
|-(7)----6-(6)-------|-([6])---([6])-----([6])---([6])\-----||
|--------------------|--------------------------------------||
|--------------------|--------------------------------------||
|--------------------|--------------------------------------||
|
|        PM--------|                   PM---------------|
|--------------------|--------------------------------------||
|--------------------|--------------------------------------||
|--------------------|--------------------------------------||
|--2--4--------------|---2---4------------------------------||
|--2--4--4--4--4-4-4-|---2---4---------4---4---4---4----4---||
|--0--2--2--2--2-2-2-|---0---2---------2---2---2---2----2---||


  &
   ~~~~~~~~~~~~~~~~~~~~~~~~~~~~~~~~~~~~~~~~~~~~~~~~~~~~~
|-----------------|-----------------|------------------|
|-13--------------|-14--------------|-/16--------------|
|-13--------------|-14--------------|-/16--------------|
|-13--------------|-14--------------|-/16--------------|
|-----------------|-----------------|------------------|
|--9--------------|--9--------------|--/9--------------|
|
|  ~~ PM--------|    ~~ PM--------|     ~~~PM--------|
|-----------------|-----------------|------------------|
|-----------------|-----------------|------------------|
|-----------------|-----------------|------------------|
|-----------------|-----------------|------------------|
|-----------------|-----------------|------------------|
|--9--9-9-9-9-9-9-|--9--9-9-9-9-9-9-|---9--9-9-9-9-9-9-|


 ~~~~~~~~~~~~~~~~~~~~~~
|-----------------|-----------------|-----------------------|
|-18--------------|-18--------------|-/14\------------------|
|-18--------------|-18--------------|-/14\------------------|
|-18--------------|-18--------------|-/14\------------------|
|-16--------------|-16--------------|-----------------------|
|-----------------|-----------------|-----------------------|
|
|  ~~ PM--------|    ~~ PM--------|     ~~~~
|-----------------|-----------------|-----------------------|
|-----------------|-----------------|-----------------------|
|-----------------|-----------------|-----------------------|
|-----------------|-----------------|-----------------------|
|-----------------|-----------------|-----------------------|
|--9--9-9-9-9-9-9-|--9--9-9-9-9-9-9-|---9--(9)\-----/(9)\---|


|------------------|------------------------|
|------------------|------------------------|
|------------------|--------------3---3s4---|
|------4-4h==5-2---|-(2)----4-4h5---5-------|
|------------------|------------------------|
|------------------|------------------------|
|
|      PM--------|          PM------------|
|------------------|------------------------|
|------------------|------------------------|
|------------------|------------------------|
|-2-4--------------|--2--4------------------|
|-2-4--4-4-4---4-4-|--2--4--4-4---4-----4-4-|
|-0-2--2-2-2---2-2-|--0--2--2-2---2-----2-2-|


|---------------------------|-------------------|
|---------------------------|---!x--------------|
|-(4)-[3]------([3])\-------|---!x--------------|
|---------------------------|-------------------|
|---------------------------|-------------------|
|---------------------------|-------------------|
|
|            PM-----------|           PM------|
|---------------------------|-------------------|
|---------------------------|-------------------|
|---------------------------|-------------------|
|--2------4-----------------|-2----4------------|
|--2------4--4---4----4-4-4-|-2----4--4-4-4-4-4-|
|--0------2--2---2----2-2-2-|-0----2--2-2-2-2-2-|


                                     ~~~~~
|------------------|---------------------|
|------------------|---------------------|
|------------------|--------------3-/7---|
|------4-4---5p2---|-(2)----4-4h5--------|
|------------------|---------------------|
|------------------|---------------------|
|
|      PM--------|          PM---------|
|------------------|---------------------|
|------------------|---------------------|
|------------------|---------------------|
|-2-4--------------|--2--4---------------|
|-2-4--4-4-4---4-4-|--2--4--4-4---4--4-4-|
|-0-2--2-2-2---2-2-|--0--2--2-2---2--2-2-|


                             /1.5______|
 ~~~~~
|------------------|--------------------------------|
|------------------|--------------------------------|
|-(7)----------6---|-(6)---/<3>------(<3>)\---------|
|------------------|--------------------------------|
|------------------|--------------------------x\----|
|------------------|--------------------------------|
|
|        PM------|                 PM------------|
|------------------|--------------------------------|
|------------------|--------------------------------|
|------------------|--------------------------------|
|--2--4------------|--2--4--------------------------|
|--2--4--4-4-4-4-4-|--2--4---------4---4----4-4--4--|
|--0--2--2-2-2-2-2-|--0--2---------2---2----2-2--2--|


|------------------------|----------------------------|
|------------------------|-----------------11-11s12---|
|---------11-11---12s9---|-(9)----11-11h12------------|
|---/x-------------------|----------------------------|
|------------------------|----------------------------|
|------------------------|----------------------------|
|
|          PM----------|           PM---------------|
|------------------------|----------------------------|
|------------------------|----------------------------|
|------------------------|----------------------------|
|-2----4-----------------|--2--4----------------------|
|-2----4---4--4-4----4-4-|--2--4---4--4-----4-----4-4-|
|-0----2---2--2-2----2-2-|--0--2---2--2-----2-----2-2-|


|------------------------|---!x--!x-----------|
|-(12)----11-(11)\-------|---!x--!x-----------|
|------------------------|---!x--!x-----------|
|------------------------|--------------------|
|------------------------|--------------------|
|------------------------|--------------------|
|
|          PM----------|          PM------|
|------------------------|--------------------|
|------------------------|--------------------|
|------------------------|--------------------|
|---2--4-----------------|-2--4---------------|
|---2--4---4---4---4-4-4-|-2--4---4-4-4-4-4---|
|---0--2---2---2---2-2-2-|-0--2---2-2-2-2-2---|


                  ~~~~~~~~~~                         ~~~~~~
|---------------------|-----------------------------------|
|---------------------|-----------------11-/14b15==(14)---|
|------11-11---12s9---|-(9)----11-11h12-------------------|
|---------------------|-----------------------------------|
|---------------------|-----------------------------------|
|---------------------|-----------------------------------|
|
|       PM----------|           PM----------------------|
|---------------------|-----------------------------------|
|---------------------|-----------------------------------|
|---------------------|-----------------------------------|
|-2-4-----------------|--2--4-----------------------------|
|-2-4---4--4-4----4-4-|--2--4---4--4-----4-----------4--4-|
|-0-2---2--2-2----2-2-|--0--2---2--2-----2-----------2--2-|


 ~~~~~~~~~~~~~~~~~~~~~~~~~
|--------------------|-----------------||
|-(14)r--------------|-14--------------||
|--------------------|-----------------||
|--------------------|-----------------||
|--------------------|-----------------||
|--------------------|-----------------||
|
|          PM------|         PM------|
|--------------------|-----------------||
|--------------------|-----------------||
|--------------------|-----------------||
|---2---4------------|--2-4------------||
|---2---4--4-4-4-4-4-|--2-4--4-4-4-4-4-||
|---0---2--2-2-2-2-2-|--0-2--2-2-2-2-2-||


    E5    F#5 F#5(type 2)                E5      F#5    F#5(type 2)
    Gtr II
     |    |    |  |     |    |     |       |     |       |    |     |      |      |
     /    /    /  /     /    /     /       /     /       /    /     /      /      /

    Gtr I
     ~~~~~~~~~~~~~~~~~~~~~~~~~~~~~~~~~~~~~~~~~
||--18---------------------------------|-(18)----------------18-------15-(15)----14-|
||o------------------------------------|--------------------------------------------|
||-------------------------------------|--------------------------------------------|
||-------------------------------------|--------------------------------------------|
||o------------------------------------|--------------------------------------------|
||-------------------------------------|--------------------------------------------|
|
|      Gtr III
||-------------------------------------|--------------------------------------------|
||o------------------------------------|--------------------------------------------|
||-----11--11-11-11-12-11-9-11-12-11-9-|------11--11-12-11-9-11-12-11--9--11--12-11-|
||-------------------------------------|--------------------------------------------|
||o------------------------------------|--------------------------------------------|
||-------------------------------------|--------------------------------------------|
|
|      Gtr IV
||-------------------------------------|--------------------------------------------|
||o------------------------------------|--------------------------------------------|
||-------------------------------------|--------------------------------------------|
||-------------------------------------|--------------------------------------------|
||o------------------------------------|--------------------------------------------|
||-------------------------------------|--------------------------------------------|


  E5    F#5 F#5(type 2)                            E5      F#5    F#5(type 2)
   |    |    |       |       |       |       |       |     |       |       |     |       |   |
   /    /    /       /       /       /       /       /     /       /       /     /       /   /

   ~~~~~~~~~~~~~~~~~~~~~~~~~~~~~~~~~~~~~~~~~~~~~~~~~~~~~
|-17---------------------------------------------|-(17)-------------------17-------15--(15)-14--||
|------------------------------------------------|---------------------------------------------o||
|------------------------------------------------|----------------------------------------------||
|------------------------------------------------|----------------------------------------------||
|------------------------------------------------|---------------------------------------------o||
|------------------------------------------------|----------------------------------------------||
|
|------------------------------------------------|----------------------------------------------||
|------------------------------------------------|---------------------------------------------o||
|----11--11-11------11--12--11---9--11--12--11-9-|------11--11-12-11---9--11-12-11--9---11------||
|------------------------------------------------|----------------------------------------------||
|------------------------------------------------|---------------------------------------------o||
|------------------------------------------------|----------------------------------------------||
|
|------------------------------------------------|----------------------------------------------||
|------------------------------------------------|---------------------------------------------o||
|-------------------------------<5>--------------|----------------------------------------------||
|-----------------------<5>-<4>---------<5>------|----------------------------------------------||
|---------------<5>-<4>-------------<4>----------|---------------------------------------------o||
|-----------<4>----------------------------------|----------------/x\-/x\--x--x----/x\---x------||


  E5    F#5 F#5(type 2)                E5      F#5    F#5(type 2)
   |    |    |  |     |    |     |       |     |       |    |     |      |      |
   /    /    /  /     /    /     /       /     /       /    /     /      /      /

   ~~~~~~~~~~~~~~~~~~~~~~~~~~~~~~~~~~~~~~~~~
|-18---------------------------------|-(18)----------------18-------15-(15)----14-|
|------------------------------------|--------------------------------------------|
|------------------------------------|--------------------------------------------|
|------------------------------------|--------------------------------------------|
|------------------------------------|--------------------------------------------|
|------------------------------------|--------------------------------------------|
|
|------------------------------------|--------------------------------------------|
|------------------------------------|--------------------------------------------|
|----11--11-11-11-12-11-9-11-12-11-9-|------11--11-12-11-9-11-12-11--9--11--12-11-|
|------------------------------------|--------------------------------------------|
|------------------------------------|--------------------------------------------|
|------------------------------------|--------------------------------------------|


  E5    F#5 F#5(type 2)
   |    |    |   |      |     |      |
   /    /    /   /      /     /      /

   ~~
|-17----------------------------------------------|
|-----------17-(17)---------(17)----15p14s==12h===|
|-------------------------------------------------|
|-------------------------------------------------|
|-------------------------------------------------|
|-------------------------------------------------|
|
|-------------------------------------------------|
|-------------------------------------------------|
|----11--11-11--11--12-11-9--11--12-11----9-------|
|-------------------------------------------------|
|-------------------------------------------------|
|-------------------------------------------------|


  E5                F#5            F#5(type 2)
   |                |               |             |         |    |   |
   /                /               /             /         /    /   /

|---------------------------------------------------------------------|
|-14p12h14p12s11h12p=11h12p11s===8h11p8h11p==8s7h=8p7h=8p7s=5---(5)\--|
|---------------------------------------------------------------------|
|---------------------------------------------------------------------|
|---------------------------------------------------------------------|
|---------------------------------------------------------------------|
|
|---------------------------------------------------------------------|
|---------------------------------------------------------------------|
|-------------11--------11----12---11------9-----11---12---11-9-11----|
|---------------------------------------------------------------------|
|---------------------------------------------------------------------|
|---------------------------------------------------------------------|


  E5  F#5 F#5(type 2)                        E5     F#5    F#5(type 2)
  |   |    |     |      |      |       |      |     |       |     |     |    |     |
  /   /    /     /      /      /       /      /     /       /     /     /    /     /

|------------------------------------------|-----------------------------------------|
|------\7-\7-\7-(7)p====5h7p5s=3h=5p3s=2---|-(2)-------------------------------------|
|------------------------------------------|---------/4p======3\---------------------|
|------------------------------------------|----------------------2---------/4-------|
|------------------------------------------|-----------------------------------------|
|------------------------------------------|-----------------------------------------|
|
|------------------------------------------|-----------------------------------------|
|------------------------------------------|-----------------------------------------|
|--11--11-11----11--12-11-9---11-12---11-9-|-----11--11-12-11-9--11-12-11-9-11-12-11-|
|------------------------------------------|-----------------------------------------|
|------------------------------------------|-----------------------------------------|
|------------------------------------------|-----------------------------------------|


  E5       F#5  F#5(type 2)                          E5       F#5
   |       |     |  |      |    |       |              |      |       |      |
   /       /     /  /      /    /       /              /      /       /      /

                                                       ~~~~~
|-------------------------------------------|-22b24==(22)r---------------------------------------*|
|-------------------------------------------|-----------------------------([29])\----------------*|
|-------------------------------------------|----------------------------------------------------*|
|-(4)-4s=5s4p=2--4-(4)---------(4)/---------|----------------------------------------------------*|
|-------------------------------------------|----------------------------------------------------*|
|-------------------------------------------|----------------------------------------------------*|
|
|-------------------------------------------|----------------------------------------------------*|
|-------------------------------------------|----------------------------------------------------*|
|-------11---11-11-11--12-11-9-11---12-11-9-|--------------11--11-12-11-9---11----12-11-9-11-----*|
|-------------------------------------------|----------------------------------------------------*|
|-------------------------------------------|----------------------------------------------------*|
|-------------------------------------------|----------------------------------------------------*|



***************************************************************************************
* Generated using Power Tab Editor by Brad Larsen - http://powertab.guitarnetwork.org *
***************************************************************************************
comments
We did not receive enough feedback on this tab! Please rate:
print report bad tab
1 2 3 4 5
I want to post or [tab]
guest
You may want to rate the tab now too:
select rating
Please do not post tabs as comments. Select "correction" instead!