Oops, an error
Loading. Please wait.

Is There Love In Space Tab

ver1
ver1

Whole song

Interactive

More versions @911Tabs.com
4,257 views 3 this week
2 commentsread comments
1 2 3 4 5
accurate
x 6
Autoscroll
+/-
esc
set tempo
stop
Contributor
Difficulty
advanced
Hey! There's an official Ultimate Guitar app which is ideal
for learning songs when you're away from computer. Get the app
WARNING: You are trying to view
                                    content from Ultimate-Guitar.com
                                    in an unauthorized application,
                                    which is prohibited.

                                    Please use an official Ultimate
                                    Guitar Tabs application for iPhone,
                                    iPad or Android to access legitimate
                                    chords, guitar, bass, and drum tabs
                                    from Ultimate-Guitar.com database.

                                    Type "ultimate guitar tabs" in Apple
                                    App Store's or Android Market's
                                    search to find the application.
-------------------------------------------------------------------------------
                   Is There Love In Space? - Joe Satriani
-------------------------------------------------------------------------------
Tabbed by: Grant Smith
Email: Bulletproof__cupid@hotmail.com

Tuning: Standard

| /  slide up
| \  slide down
| h  hammer-on
| p  pull-off
| ~  vibrato
| +  harmonic
| x  Mute note
| ^  Bend

Intro:
  0.10
e|-------------|-------------|-------------|-------------|
B|-------------|-------------|-------------|-------------|
G|-------------|-------------|-------5--5~-|-------------|
D|----5-----4~-|-------5--5~-|----3--------|-------5--6~-|
A|-3-----3-----|----3--------|-1-----------|----3--------|
E|-------------|-1-----------|-------------|-1-----------|


e|-------------|-------------|-------------|-------------|
B|-------------|-------------|-------------|-------------|
G|-------------|-------------|-------5--5~-|-------------|
D|----5-----4~-|-------5--5~-|----3--------|-------5--6~-|
A|-3-----3-----|----3--------|-1-----------|----3--------|
E|-------------|-1-----------|-------------|-1-----------|

Lead:
Lead Guitar
                                                           
E||------|------|------|------|------|------|------|------|
B||------|------|------|------|------|------|------|------|
G||------|------|------|------|------|------|------|------|
D||------|------|------|------|------|------|------|------|
A||------|------|------|------|------|------|------|------|
E||------|------|------|------|------|------|------|------|


                                                                                
-------------------------|--------------|-------------------------|------------|
-------------------------|--------------|-------------------------|------------|
-------------------------|--------------|-------------------------|------------|
----------10s---10s-8----|----10--------|----------13--12----10-8-|--10--------|
-------------------------|--------------|-------------------------|------------|
-------------------------|--------------|-------------------------|------------|


                                                                 
-----------------------|---------------|------------------------|
-----------------------|---------------|------------------------|
-----------------------|---------------|------------------------|
----------10----10--8--|--8--10--------|----------15--13----12--|
-----------------------|---------------|------------------------|
-----------------------|---------------|------------------------|


                                                                    
--------------------------|----------------------------------------|
--------------------------|----------------------------------------|
--------------------------|--11--------11--------12----------------|
--10----10----10------10--|------------------10--------------------|
--------------------------|----------------------------------------|
--------------------------|----------------------------------------|


                                                                        
------------------|-------------------------|--------------------------|
------------------|-------------------------|--------------------------|
------------------|-------------------------|--------------------------|
------------------|----------13--12----10-8-|--10--13-10-----------10--|
------------------|-------------------------|--------------------------|
------------------|-------------------------|--------------------------|


                                                                           
----------------------------------------|------|--------------------------|
----------------------------------------|------|--------------------------|
--11--------11--------12----------------|------|--------------------------|
------------------10--------------------|------|------15----15--13s---12--|
----------------------------------------|------|--------------------------|
----------------------------------------|------|--------------------------|


                                                                     
------------|--------------------------|----------------------------|
------------|--------------------------|----------------------------|
------------|------------9--------8----|------10--------------------|
--10--------|--------10-------10-------|----------10----------------|
------------|--------------------------|----------------------------|
------------|--------------------------|----------------------------|


                                                                                
--------------------------|--------------------------|-------------------------|
--------------------------|--------------------------|-------------------------|
------------9--------8----|----10--------------------|-------------9--------8--|
--------10-------10-------|----------8----8--8-6-----|---------10-------10-----|
--------------------------|----------------------8-8-|--8----------------------|
--------------------------|--------------------------|-------------------------|


                                                                       
--------------4--6--8--|--8----8----6--4-----4--|----6----------------|
-----------------------|------------------6-----|---------------------|
----10-----------------|------------------------|---------------------|
-----------------------|------------------------|---------------------|
-----------------------|------------------------|---------------------|
-----------------------|------------------------|---------------------|


                                                                           
------------12--------11----|------13--------|------------12--------11----|
--------13--------13--------|----------13----|--------13--------13--------|
----------------------------|----------------|----------------------------|
----------------------------|----------------|----------------------------|
----------------------------|----------------|----------------------------|
----------------------------|----------------|----------------------------|


                                                               
----13-------------------------|--------------12--------11----|
----------11----11--11-9-------|----------13--------13--------|
-------------------------10-10-|--10--------------------------|
-------------------------------|------------------------------|
-------------------------------|------------------------------|
-------------------------------|------------------------------|


                                                          
----13--------16--18--20--|--20----20----18--16------16--|
--------------------------|----------------------18------|
--------------------------|------------------------------|
--------------------------|------------------------------|
--------------------------|------------------------------|
--------------------------|------------------------------|


                                                                                
----18----------------|------------------|------------------|------------------|
----------------------|------------------|------------------|------------------|
----------------------|------------------|------------------|------------------|
----------------------|------------------|------------------|------------------|
----------------------|------------------|------------------|------------------|
----------------------|------------------|------------------|------------------|


                                                                         
------------------|-----------------|-----------------|-----------------|
------------------|--------4--------|-----------------|--------6--------|
------------------|-----------------|--------5--------|-----------------|
------------------|-----------------|-----------------|-----------------|
------------------|-----------------|-----------------|-----------------|
------------------|-----------------|-----------------|-----------------|

Solo: Strict Legato
                                                                 
-----------------8-8/3-8-8-3-|--8-8-3-8-8-3-8-8-3-8-8-3-8--3----|
-----------------------------|----------------------------------|
--------5--------------------|----------------------------------|
-----------------------------|----------------------------------|
-----------------------------|----------------------------------|
-----------------------------|----------------------------------|


                                                                           
--------8-8-3-8-8-3-8-8-3-8-8-3-8-8-3-8-8-3-8----|------10r-8-6-8~---8----|
-------------------------------------------------|------------------------|
-------------------------------------------------|------------------------|
-------------------------------------------------|------------------------|
-------------------------------------------------|------------------------|
-------------------------------------------------|------------------------|


                                                                          
-----8-8-10-10b-------8-6-|--8--8-8r8--8-6-4-3-4--3-4-6--4-3---3---------|
--------------------------|----------------------------------6---6-4-3-4-|
--------------------------|----------------------------------------------|
--------------------------|----------------------------------------------|
--------------------------|----------------------------------------------|
--------------------------|----------------------------------------------|


                                               
--3-------------------------------------------|
----4-6--6-3-4-3-------------3----------------|
-----------------5-3-5-5-5-5---3-5---------3--|
---------------------------------------5-6----|
----------------------------------------------|
----------------------------------------------|


                                                
-----------------------------------------------|
-----------------------------------------------|
-------------------------------------3---------|
--5-6-6----------------------------6---6-5-----|
---------6-5-3--3-----3-5-6--5-5-6---------6-5-|
--------------------1--------------------------|


                                         
----------------------------------------|
----------------------------------------|
----------------------------------------|
----------------------------------------|
--3-1-3--5-3------------3-5-3-----------|
--------------1----1----------6-5-3-1-3-|


                                          
-----------------------------------------|
-----------------------------------------|
-----------------------------------------|
------------------------------3-5-6--5---|
--------3-5-6--5-3-3----3-5-6----------6-|
--3-4-6----------------------------------|


                                                           
----------------------------------------------------------|
----------3-4-6--8-9-8-6--6-4-3---------------------------|
------5-3-----------------------5-3---3-3-----------------|
--5-6-------------------------------5-----5-6-5-3-----3---|
--------------------------------------------------5-6---6-|
----------------------------------------------------------|


                                                             
------------------------------------------------------------|
--------------------------------------3---------------------|
------3-5--3-5------------3-------3-5---5-3-----------------|
--5-6-----------------5-3---6-5-6-----------6-5-3---------3-|
---------------3-5-6------------------------------6-5-3-6---|
------------------------------------------------------------|


                                                                       
------------------------------3-4-6-4---------------------------------|
--------------------3-4-6-4-6---------3-4-6-4-3-----------------------|
--------------3-5-3-----------------------------5-3-------------------|
--------3-5-6---------------------------------------6-5-3-5-6-5-3-----|
--3-5-6-----------------------------------------------------------6-5-|
----------------------------------------------------------------------|


                                                                       
--------------------------------------------------------3-4-6-3-4-3-4-|
----------------------------------3-4-6-4-3-------3-4-6---------------|
------------------------------3-5-----------5-3-5---------------------|
------------------------3-5-6-----------------------------------------|
--3---------------3-5-6-----------------------------------------------|
----6-4-3-1-3-4-6-----------------------------------------------------|


                                                                        
--6-8-6-4-3-------3---3-4-6-8-10-8-11-10-8-6-8-6-4-3-------------------|
------------3-4-6---6--------------------------------6-4-3-------------|
-----------------------------------------------------------5-3-5-------|
-----------------------------------------------------------------6-5-3-|
-----------------------------------------------------------------------|
-----------------------------------------------------------------------|


                                                                             
--------------3-4-6-----3-4-6-4-3-4-6-8-6-8-10-11-8-10-11-10-8-6-8-10-8-6-4-|
--------3-4-6-------4-6-----------------------------------------------------|
----3-5---------------------------------------------------------------------|
--5-------------------------------------------------------------------------|
----------------------------------------------------------------------------|
----------------------------------------------------------------------------|


                                                        
--3-4-6-8-10-8-6-4-6-8-6-10-6-8-10-11-10-8-8-10-11--13-|
-------------------------------------------------------|
-------------------------------------------------------|
-------------------------------------------------------|
-------------------------------------------------------|
-------------------------------------------------------|


                                                          
--13------------------------|----------------------------|
----------------------------|----------------------------|
--------------9--------8----|------10--------------------|
----------10-------10-------|----------10----------------|
----------------------------|----------------------------|
----------------------------|----------------------------|


                                                                                
--------------------------|--------------------------|-------------------------|
--------------------------|--------------------------|-------------------------|
------------9--------8----|----10--------------------|-------------9--------8--|
--------10-------10-------|----------8----8--8-6-----|---------10-------10-----|
--------------------------|----------------------8-8-|--8----------------------|
--------------------------|--------------------------|-------------------------|


                                                                       
--------------4--6--8--|--8----8----6--4-----4--|----6----------------|
-----------------------|------------------6-----|---------------------|
----10-----------------|------------------------|---------------------|
-----------------------|------------------------|---------------------|
-----------------------|------------------------|---------------------|
-----------------------|------------------------|---------------------|


                                                                           
------------12--------11----|------13--------|------------12--------11----|
--------13--------13--------|----------13----|--------13--------13--------|
----------------------------|----------------|----------------------------|
----------------------------|----------------|----------------------------|
----------------------------|----------------|----------------------------|
----------------------------|----------------|----------------------------|


                                                               
----13-------------------------|--------------12--------11----|
----------11----11--11-9-------|----------13--------13--------|
-------------------------10-10-|--10--------------------------|
-------------------------------|------------------------------|
-------------------------------|------------------------------|
-------------------------------|------------------------------|


                                                          
----13--------16--18--20--|--20----20----18--16------16--|
--------------------------|----------------------18------|
--------------------------|------------------------------|
--------------------------|------------------------------|
--------------------------|------------------------------|
--------------------------|------------------------------|


                                                              
----18----------------|--------------------------------------|
----------------------|---------------------11-13------11----|
----------------------|-------------8-10-13---------------10-|
----------------------|----------10--------------------------|
----------------------|--8-10-12-----------------------------|
----------------------|--------------------------------------|


Rythm:
*Loosely strum so you hit some open notes!
e|-------------|-------------|-------------|-------------|
B|-------------|-------------|-------------|-------------|
G|-------------|-------------|-------5--5~-|-------------|
D|----5-----4~-|-------5--5~-|----3--------|-------5--6~-|
A|-3-----3-----|----3--------|-1-----------|----3--------|
E|-------------|-1-----------|-------------|-1-----------|


e|-------------|-------------|-------------|-------------|
B|-------------|-------------|-------------|-------------|
G|-------------|-------------|-------5--5~-|-------------|
D|----5-----4~-|-------5--5~-|----3--------|-------5--6~-|
A|-3-----3-----|----3--------|-1-----------|----3--------|
E|-------------|-1-----------|-------------|-1-----------|

Also chuck in a couple of these chords for good measure

e|-------3--3--|--------8--8--|-------3--3-|-------8--8--|
B|-------4--4--|--------9--9--|-------4--4-|-------9--9--|
G|-5--5--5--5--|--10-10-10-10-|-5--5--5--5-|-10-10-10-10-|
D|-5--5--5--5--|--10-10-10-10-|-5--5--5--5-|-10-10-10-10-|
A|-3--3--------|--8--8--------|-3--3-------|-8--8--------|
E|-3--3--------|--8--8--------|-3--3-------|-8--8--------|


===============================================================================
comments
print report bad tab
2 comments total.
0 reply
LJHarris wrote on January 30 2010, 03:26 am

Fairly good. So good job anyway.

0 reply
TearOfHate wrote on April 17 2010, 04:03 am

Perfectly tabbed. Great job!

I want to post or [tab]
guest
You may want to rate the tab now too:
select rating
Please do not post tabs as comments. Select "correction" instead!