Oops, an error
Loading. Please wait.

Just Look Up Tab

ver2
ver2

Whole song

Interactive

More versions @911Tabs.com
5,484 views 9 this week
1 commentread comment
1 2 3 4 5
excellent!
x 4
Autoscroll
+/-
esc
set tempo
stop
Contributor
Difficulty
advanced
WARNING: You are trying to view
                                    content from Ultimate-Guitar.com
                                    in an unauthorized application,
                                    which is prohibited.

                                    Please use an official Ultimate
                                    Guitar Tabs application for iPhone,
                                    iPad or Android to access legitimate
                                    chords, guitar, bass, and drum tabs
                                    from Ultimate-Guitar.com database.

                                    Type "ultimate guitar tabs" in Apple
                                    App Store's or Android Market's
                                    search to find the application.
Artist: Joe Satriani
Track: Just Look Up
Album: IS There Love In Space


vib = vibrato              () = ghoast note (fret = note)
h = hammer                  x = left hand mute
p = pull                    pm = palm mute
/ = slide up                pb = pre bend(number = step)
\ = slide down
b = bend (number = step)
r = release
gr = gradual release

w/distortion and reverb

         (vib)             (vib)                 (vib)             (vib)

|---------------------------------------------------------------------------|
|----------------------------------------------------------5/7/9\7\5--------|
|---------------------------------------------------------------------------|
|-2/4/6/9-------------9/11\9----------4\2/4\2/4/6---------------------------|
|---------------------------------------------------------------------------|
|---------------------------------------------------------------------------|


           (Vib)           (vib)                 (vib)   (vib)

|--------------------------------|--------------------------------------|
|--------------------------------|--------------------------------------|
|------------------------/9------|--4/6p4--4-----4----------------------|
|---2/4/6/9----------------------|------------6-------4/6-----(6)\4-----|
|--------------------------------|--------------------------------------|
|--------------------------------|--------------------------------------|


                              (vib)             (vib)    (vib)  (vib)

|--------------------------------|-------------------|-----------------|
|--------------------------------|-------------------|-----------------|
|--------------------------------|--4/6p4---4\1/4----|--/4-------------|
|--------------2----2/4---(4)/6--|-------------------|--------4/6------|
|----x--x-2/4--------------------|-------------------|-----------------|
|--------------------------------|-------------------|-----------------|


            (vib)               (vib)    (vib

|-------------------------------------|--------------------|
|-------------------------------------|--5---(5)p4---------|
|-------------------------------------|---------------6\4--|
|-----4/6\4\2-------------2------2----|--------------------|
|-----------------0--2/4--------------|--------------------|
|-------------------------------------|--------------------|


    (vib)                    (vib)                                   (vib)

|-------------------------|------------------------------------------------|
|-4/6-------4----(4)/6\4--|--5------4---------------5--5-----7/9--7--------|
|---------6---------------|------------4/6----4---6-------6-----------9----|
|-------------------------|------------------------------------------------|
|-------------------------|------------------------------------------------|
|-------------------------|------------------------------------------------|


   (vib)      (vib)  b1         b1  (vib)    b1          (vib)       b1

|-------------------------|-19-------------------|-----------------------|
|-------------17----19----|-----19---17------19--|-------17-----19---19--|
|-(9)-----18--------------|----------------------|---18------------------|
|-------------------------|----------------------|-----------------------|
|-------------------------|----------------------|-----------------------|
|-------------------------|----------------------|-----------------------|


        (vib) b1         b1  (vib) b1                (vib)  (vib)

|-----------------|--19----------------|--------------------------|
|-------17----19--|------19--17----19--|-------17----17----(17)---|
|---18------------|--------------------|---18---------------------|
|-----------------|--------------------|--------------------------|
|-----------------|--------------------|--------------------------|
|-----------------|--------------------|--------------------------|


              (vib)  (vib)        (vib)   (vib)

|-----------------------------------------------------------------|
|-----------------------------------------------------------------|
|--4/6p4--4\1/4---------------------------------------------------|
|------------------4/6------4/6\4\2-------------------2---2-------|
|---------------------------------------2/4-----2/4-----------4---|
|-----------------------------------------------------------------|


      (vib)    (vib)            (vib)    (vib)                        (vib)

|---------------------------------------------------------------------------|
|---------------------------------------------------------------------------|
|------------4/6-----(6)\4---4/9\8\6\4/6\4----------------------------------|
|-2/4/6------------------------------------------4/6\4--2--x-------2/4\2----|
|-------------------------------------------------------------2/4-----------|
|---------------------------------------------------------------------------|

  (vib)            (vib)              (vib)  (vib)

|-----------------------------------------------------------------------------|
|-5-----4------------------------------------5-----4-------------5--5-----7/9-|
|-----------6\4--4/6--------4--(4)/6/9----------------6--4--4/6--------6------|
|------------------------6----------------------------------------------------|
|-----------------------------------------------------------------------------|
|-----------------------------------------------------------------------------|


      (vib) (vib)        (vib) b1      b1  (vib) b1

|----------|-----------------------19-----------------|------------------|
|--7-------|-------------17----19------19--17----19---|------17-----19---|
|-----9----|--(9)----18-------------------------------|--18--------------|
|----------|------------------------------------------|------------------|
|----------|------------------------------------------|------------------|
|----------|------------------------------------------|------------------|


          b1/(vib)          (vib)  b1         b1  (vib) b1        (vib) (vib-

|------------------|-------------------|--19----------------|---------------|
|--(19)--(19)------|--------17-----19--|------19--17----19--|-----17----17--|
|------------------|--18---------------|--------------------|--18-----------|
|------------------|-------------------|--------------------|---------------|
|------------------|-------------------|--------------------|---------------|
|------------------|-------------------|--------------------|---------------|


   ---------------------------|)          (vib)       (vib) b1

|-------------------------------|-------------------------------|
|--17---------------------------|---------------------17----19--|
|--16h17--16--0--16-----16------|-----------------18------------|
|----------------16h18--16------|-------------------------------|
|---------------------------19--|--16\14/16---------------------|
|-------------------------------|-------------------------------|


       b1  (vib) b1         (vib)         b1/(vib---------------|)

|--19----------------|-----------------|-----------------------------|
|------19---17---19--|------17----19---|--19-------------------------|
|--------------------|--18-------------|-----------------------------|
|--------------------|-----------------|--------------------17/18----|
|--------------------|-----------------|-----------------------------|
|--------------------|-----------------|-----------------------------|


   (vib-|)       (vib) b1        b1    (vib) b1 gr                   (vib)

|-------------------------|--19-----------------------|--------------------|
|----------------17----19-|------19----17----19-(19)--|------17------17----|
|--16h18----18------------|---------------------------|--18----------------|
|-------------------------|---------------------------|--------------------|
|-------------------------|---------------------------|--------------------|
|-------------------------|---------------------------|--------------------|


    (vib)

|-----------------|--12p9------------------------------------------------|
|--(17)----(17)\--|-------12-9------12p9----9----------------------------|
|-----------------|------------11-9------11---11p9-11-9---11-------------|
|-----------------|--------------------------------------------9---9-11--|
|-----------------|------------------------------------------------------|
|-----------------|------------------------------------------------------|


   (vib)(vib)                        (vib)         (vib)

|-----------------------------------|--------------------------------------|
|-----------------------------------|--------------------------------------|
|--9----9-----11/13--11\9--9--------|-------------------------9-11---9-11--|
|-----------------------------9--9--|-9-----9h11---9-----9h11--------------|
|-----------------------------------|--------------------------------------|
|-----------------------------------|--------------------------------------|


            (vib)                             (vib)             (vib)

|---------------------|------------------------------------------------|
|--------12-12-----14-|--12--9h12p9-----------------9------------------|
|--11/13--------------|--------------11\9--9/11-------11\9\6/9/11------|
|---------------------|------------------------------------------------|
|---------------------|------------------------------------------------|
|---------------------|------------------------------------------------|


             (vib)

|----------------------------------------9---------------------------|
|--------------------------9-10-12--9-10---12-10h12p10p9--10-9-------|
|--11/13\11\9---------9-11-------------------------------------11h9--|
|------------------11------------------------------------------------|
|--------------------------------------------------------------------|
|--------------------------------------------------------------------|


                         (vib)                                  (vib)

|-----------------------------|---------------------------------------|
|-----9-----------------------|---------------------------------------|
|--11-----11p9----------------|-----------------9---------------------|
|--------------13---9-11-9----|------------9h11------9----------------|
|-----------------------------|--12p11--12--------11---11-9-11-9------|
|-----------------------------|---------------------------------------|


                                                           b1--r-b1----r-|

|----------------9-11h12--(12)p9---------11-12-14--12--14--14--(14)--(14)p12-|
|-----------9-12----------------------12-------------------------------------|
|--9p8-9-11------------------------------------------------------------------|
|----------------------------------------------------------------------------|
|----------------------------------------------------------------------------|
|----------------------------------------------------------------------------|


       b1---r      (vib) b1       (vib)

|--17-----------|-----------------12------------------------------------------|
|------19--(19)-|--17----19--/14--------14--12---------12---------------------|
|---------------|-------------------------------12/13-----12\11-9-------------|
|---------------|-------------------------------------------------11--11-9-11-|
|---------------|-------------------------------------------------------------|
|---------------|-------------------------------------------------------------|


   (vib)

|--------12p9---------------------|----------------------------------------|
|-------------12-9-12p9----9------|----------------------------------------|
|--9--------------------11---11-9-|-11p9----9------------------------------|
|---------------------------------|------11---11-9-11p9----9---------------|
|---------------------------------|---------------------11---11\9-7--7--7--|
|---------------------------------|----------------------------------------|


                                   (vib)

|---------------|------------------------14p12----12-14p12-16p12-14p12-14p12-|
|---------------|--------12-14--14-12----------14----------------------------|
|------------9--|--11/13-----------------------------------------------------|
|-------9-11----|------------------------------------------------------------|
|--9/11---------|------------------------------------------------------------|
|---------------|------------------------------------------------------------|


                                                      (vib)

|----12----12-14p12----12--------------------------------------------------|
|-14----14----------14----14-12-14p12----12--------------------------------|
|-------------------------------------13----13-11--11/13----13-16p13\11\9--|
|--------------------------------------------------------------------------|
|--------------------------------------------------------------------------|
|--------------------------------------------------------------------------|


                       (vib)                       b1        b½--------

|------------------|---------------------------------------------|
|------------------|-------------------------------------12------|
|--11-11/13--11\9--|--------------9--9---11----9---11-------11---|
|------------------|-9/11----9-11--------------------------------|
|------------------|---------------------------------------------|
|------------------|---------------------------------------------|


-----r          (vib)                             (vib)    b1    b1

|-----------------------------------------------|-12---14------------|
|-----------------------------------------12-14-|----------17----19--|
|--(11)p9----9--9-----11--------9---11/13-------|--------------------|
|---------11-------------9---11---11------------|--------------------|
|-----------------------------------------------|--------------------|
|-----------------------------------------------|--------------------|


  (vib) (vib)    (vib)     b1        b1   b1   (vib)  b1    b½---r

|------------------------------|-19--19---19---19----(19)---16--(16)-------|
|-17----17-------17----17--20--|--------------------------------------17---|
|------------/18---------------|-------------------------------------------|
|------------------------------|-------------------------------------------|
|------------------------------|-------------------------------------------|
|------------------------------|-------------------------------------------|


     (vib)

|----------------------------------------------------------------------------|
|----------------------------------------------------------------------------|
|--16h18p19------13---16---14p13-14p13-14-13-----14p13--------------------11-|
|--------------------------------------------14--------14-----------11-14----|
|---------------------------------------------------------16\14--14----------|
|----------------------------------------------------------------------------|


|-----------------------------------------12--12-11--11-9--9------------------|
|------------9h10p9----9-10-12---9-10-12---------------------12-12-10h12p10p9-|
|--------9----------11--------------------------------------------------------|
|---9-11----------------------------------------------------------------------|
|-----------------------------------------------------------------------------|
|-----------------------------------------------------------------------------|


                                          (vib)

|--------------------------------------------------------------------------|
|-10-9h10p9----9-----------------------------------------------------------|
|-----------11---11-9\8----------------------------------------------------|
|-----------------------9-------------6-9-6-----------------9--------------|
|-------------------------11-9-7--6h7-----------9-7-9--9/11---11--9\7-9p7--|
|--------------------------------------------------------------------------|


                                             (vib) b1

|-----------------------|----------------------------------------|
|-----------------------|-------12-14--14/17-17----19-------17---|
|------------------9-11-|-11/13--------------------------18------|
|------9-11---9/11------|----------------------------------------|
|-9/11------------------|----------------------------------------|
|-----------------------|----------------------------------------|


  pb1---r-b½--r               pb1--r              pb½----r

|------------------------------------------------|----------------------|
|-19---(19)-(19)p17----17-----19--(19)----17-19--|-19----(19)p17----17--|
|-------------------18----18-----------18--------|---------------18-----|
|------------------------------------------------|----------------------|
|------------------------------------------------|----------------------|
|------------------------------------------------|----------------------|


               pb1---r/b1--r/b1--r/(vib) b½---r           b1---r/(vib)

|-----------16-19--(19)---(19)---(19)----16--(16)-------------------------|
|-----17-19---------------------------------------17---19-----------------|
|--18-----------------------------------------------16----16--(16)--------|
|-------------------------------------------------------------------------|
|-------------------------------------------------------------------------|
|-------------------------------------------------------------------------|


                           (vib)                                 (vib)

|-------------------------------------------------------------------------|
|-------------------------------------------------------------------------|
|-(16)\--13-14p13-------------------------------------------------9----11-|
|-----------------16-14-------------16--------14------11-----9/11---------|
|-----------------------14-16----14-----14\11----11\9----9\7--------------|
|-------------------------------------------------------------------------|


|-12p9---------------------------------------------------------|--0--|
|------12-9----------------------------------------------------|--0--|
|-----------11p9-----------------------------------------------|--1--|
|----------------11p9------------------------------------------|--2--|
|---------------------11\9--7------\---------------------------|--2--|
|--------------------------------------------------------------|--0--|
comments
print report bad tab
1 comment total.
0 reply
joebonanno wrote on December 9 2006, 12:52 pm

Probrally the best tabbed out Satriani song accuratly tabbed out... I give it 5 stars and more..... a must read

I want to post or [tab]
guest
You may want to rate the tab now too:
select rating
Please do not post tabs as comments. Select "correction" instead!