Oops, an error
Loading. Please wait.

Killer Bee Bop Tab

568 views 6 this week
1 commentread comment
1 2 3 4 5
excellent!
x 1
add to favorites launch autoscroll
font size
0
reset
Autoscroll
+/-
esc
set tempo
stop
Contributor
Difficulty
advanced
WARNING: You are trying to view
                                    content from Ultimate-Guitar.com
                                    in an unauthorized application,
                                    which is prohibited.

                                    Please use an official Ultimate
                                    Guitar Tabs application for iPhone,
                                    iPad or Android to access legitimate
                                    chords, guitar, bass, and drum tabs
                                    from Ultimate-Guitar.com database.

                                    Type "ultimate guitar tabs" in Apple
                                    App Store's or Android Market's
                                    search to find the application.
-------------------------------------------------------------------------
                        Killer Bee Bop - Joe Satriani
-------------------------------------------------------------------------
                            Music by Joe Satriani
                           Tabbed by: Cade Nickels


Tuning: standard
Album: Joe Satriani
Fast = 184
Double time feel
W/Fills

Gtr.I
    h p h     p p p  P.M.
e|-------------------------------------------------------------------------|
B|-------------------------------------------------------------------------|
G|--3-4-3-5\4-3-2-0--------------------------------------------------------|
D|------------------2------------------x2----------------------------------|
A|-------------------------------------------------------------------------|
E|-------------------------------------------------------------------------|
     

e|----------------------------------|--------------------------------------|
B|----------------------------------|--------------------------------------|
G|--3-4-3-5\4-3-2-0-3-4-3-5\4-3-2-0-|--3-4-3-5\4-3-2-0---------------------|
D|----------------------------------|------------------2-------------------|
A|----------------------------------|--------------------------------------|
E|----------------------------------|--------------------------------------|


e|----------------------------------|--------------------------------------|
B|----------------------------------|--------------------------------------|
G|----------------------------------|--------------------------------------|
D|--3-4-3-5\4-3-2-0-----------------|--1-2-1-3-2-1-0-----------------------|
A|------------------2---------------|----------------3-0-------------------|
E|----------------------------------|--------------------------------------|


e|----------------------------------|--------------------------------------|
B|----------------------------------|--------------------------------------|
G|--3-4-3-5\4-3-2-0-3-4-2-5\4-3-2-0-|--3-4-3-5\4-3-2-0---------------------|
D|----------------------------------|------------------2-------------------|
A|----------------------------------|--------------------------------------|
E|----------------------------------|-------------------------/x\----------|
                                                             sl.

(Two guitars begin)
Gtr.I
e|---------------------|---------------------|-----------------------------|
B|---------------------|---------------------|-----------------------------|
G|--9----7/9--9/12--12-|-12/14----12--9----7-|-7----12--12/14--12\9\7------|
D|---------------------|---------------------|-----------------------------|
A|--7----5/7--7/10--10-|-10/12----10--7----5-|-9----10--10/12--10\7\5------|
E|---------------------|---------------------|-----------------------------|

Gtr.II                                        ~~~~
e|---------------------|---------------------|-----------------------------|
B|---------------------|---------------------|-----------------------------|
G|---------------------|---------------------|-----------------------------|
D|---------------------|---------------------|----5-------7P5--------------|
A|--2------------------|-(2)-----------------|--------------------7p5------|
E|--0------------------|-(0)----------------5h7----------------------------|


Gtr.I (2nd time Gtr.I substitute Fill 1)
e|------------------------|-----------------------|------------------------|
B|----------12---15-------|-----------------------|------------------------|
G|--9------------14----12-|-(12)--7----7--9----12-|-12/14----12----9----7--|
D|----------9----12----12-|-(12)------------------|------------------------|
A|--7---------------------|-------9----5--7----10-|-10/12----10----7----5-7|
E|-------0----------------|-----------------------|------------------------|

Gtr.II
e|------------------------|------------0--0-------|---(0)------------------|
B|------------------------|------------0--0-------|---(0)------------------|
G|------------------------|------------4--4-------|---(4)------------------|
D|------------------------|------------2--2-------|---(2)------------------|
A|--7-------------(7)\----|------------2--2-------|---(2)------------------|
E|------------------------|--0---------0--0-------|---(0)------------------|


Gtr.I
e|------------------------|-----------------------|------------------------|
B|------------------------|-----------------------|------------------------|
G|--9--9/15----14--12\9\7-|-9------------(9)/-----|-11----11----11---------|
D|------------------------|-----------------------|-9-----9-----9----------|
A|--7--7/13----12--10\7\5-|-7------------(7)/-----|------------------------|
E|------------------------|-------------------0-0-|-------------------0----|

Gtr.II                       ~~~~~~~~~~~~~~~~~~~~~
e|-----------0------------|-----------------------|------------------------|
B|------------------------|-----------------------|------------------------|
G|-----2/3-----3\2p3------|-----------------------|-11----11----11----x----|
D|--------------------2p0-|-2---------------------|-9-----9-----9-----x----|
A|------------------------|-----------------------|------------------------|
E|------------------------|-----------------------|------------------------|

Gtr.I ~~~(2nd time Gtr.I substitute Fill 2)              (pull bar up)
e|------------------------|------0----------------|------/\----------------|
B|------------------------|------0----------------|-----/--\---------------|
G|--10----7----7----5-----|-4----4----------------|----/----\--------------|
D|--8-----9----5----3-----|-2----3----------------|---/------\-------------|
A|------------------------|-----------------------|-7/-*trem.bar-----------|
E|------------------------|-----------------------|---------------------0-0|

Gtr.II~~~
e|------------------------|------0----------------|-(0)--------------------|
B|------------------------|------0----------------|-(0)--------------------|
G|--10----7----7----5-----|-4----4----------------|-(4)-----------------4/-|
D|--8-----9----5----3-----|-2----2----------------|-(2)-----------------2/-|
A|------------------------|-----------------------|------------------------|
E|------------------------|-----------------------|------------------------|

Gtr.I~~~   ~~~   ~~~                                              ~~~
e|--------------------|--------------------|------------------------|-----0|
B|--------------------|--------------------|---------(0)--12--(12)/-|-----0|
G|--11----11----11----|-10-----9----7----4-|-4/11-------------------|-----2|
D|--9--9--9-----9-----|-8------7----5----2-|-2/9--------------------|-----3|
A|--------------------|--------------------|------------------------|-3-3--|
E|------------------0-|-----0--------------|------------------------|-1-1--|

Gtr.II~~~   ~~~   ~~~
e|--------------------|--------------------|------------------------|------|
B|--------------------|--------------------|------------------------|------|
G|-/11----11----11--11|-10----9-----7----x-|------------------------|------|
D|-/9-----9-----9---9-|-8-----7-----5----x-|------------------------|------|
A|--------------------|--------------------|---9------------------(9)\3----|
E|--------------------|--------------------|---7------------------(7)\1-/x\|
                                                                        sl.
(Two guitars end)
Gtr.I
e|-------------------------------------------------------------------------|
B|-------------------------------------------------------------------------|
G|--3-4-3-5/4-3-2-0--------------------------------------------------------|
D|------------------2------------------x2----------------------------------|
A|-------------------------------------------------------------------------|
E|--------------------0----------------------------------------------------|

e|----------------------------------|--------------------------------------|
B|----------------------------------|--------------------------------------|
G|--3-4-3-5\4-3-2-0-3-4-3-5\4-3-2-0-|--3-4-3-5\4-3-2-0---------------------|
D|----------------------------------|------------------2-------------------|
A|----------------------------------|--------------------------------------|
E|----------------------------------|--------------------------------------|

e|----------------------------------|--------------------------------------|
B|----------------------------------|--------------------------------------|
G|------------------pick slide------|--------------------------------------|
D|----------------------------------|--------------------------------------|
A|--x\\\\\\\\\\\\\\\\\\\\-----------|--x\\\\\\\\\\\\\\\\\\\----------------|
E|--x\\\\\\\\\\\\\\\\\\\\-----------|--x\\\\\\\\\\\\\\\\\\\----------------|

Guitar solo
Gtr.I
e|--4-5p4p2---2-4-5p4p2---2-4p2-5-2-|-4p2---2-4-5p4p2---2 4h5p4p2---2------|
B|----------5-----------5-----------|-----5-----------5-----------5--------|
G|----------------------------------|--------------------------------------|
D|----------------------------------|--------------------------------------|
A|----------------------------------|--------------------------------------|
E|----------------------------------|--------------------------------------|

e|--7-2h4-------5h7-2---5--2-7-5p2---7-5p2-|-5-7p5p2---7p5p2-5-7p5p2-------|
B|------------x-------5------------5-------|---------5---------------------|
G|----------x------------------------------|-------------------------------|
D|--------x--------------------------------|-------------------------------|
A|-----------------------------------------|-------------------------------|
E|-----------------------------------------|-------------------------------|

e|----5-2-5-2-4h5p4-2-5-2h4h5p4p2-------------------|----------------------|
B|--5---2-5-2---------------------5p2-4-4p2p0h4p2h4-|-5p2h4p2---2-4-2h4p2--|
G|--------------------------------------------------|---------4------------|
D|--------------------------------------------------|----------------------|
A|--------------------------------------------------|----------------------|
E|--------------------------------------------------|----------------------|

e|----------------------------------------|--------------------------------|
B|--5p4p2-5-2-4p2-5-2-4-5p4p2---2h4p2-----|-----------------------2/-------|
G|----------------------------5-------5p2-|-5p4p2-5p4p2---4p2-----2/-------|
D|----------------------------------------|-------------4-----4------------|
A|----------------------------------------|--------------------------------|
E|----------------------------------------|---------------------------x\---|
            /                                    +
e|--\------/--|----\/-\/-\/-\/-|-----\/-\/-\/-\/---|----\------------3-0---|
B|---\----/---|----------------|-------------------|-----\-----------3-0---|
G|--0-\--/----|-(0)------------|-(0)-------------5-|-(5)--\----------------|
D|-----\/-----|----------------|-----------------5-|-(5)---\---------------|
A|--*Trem.----|------*Trem.----|-------*trem.------|--------\--------------|
E|------------|----------------|-------------------|-*trem.----------------|

e|--0-3-0-0-3p2p0-0-3p2p0---3p2p0-2-3p2p0----|-3p2p0---3p2p0---3p2p0-5p3p0-|
B|--0---------------------3----------------3-|-------3-------3-------------|
G|-------------------------------------------|-----------------------------|
D|-------------------------------------------|-----------------------------|
A|-------------------------------------------|-----------------------------|
E|-------------------------------------------|-----------------------------|

e|--5p3p0-3-2h3p2p0--------------------------|-----------------------------|
B|------------------4------------------------|-----------------------------|
G|--------------------5----5p4-7p5p4---4h5p4-|---4---------------4---------|
D|-----------------------------------7-------|-7---7-5p4h7p5p4-7-----------|
A|-------------------------------------------|-----------------------------|
E|-------------------------------------------|-----------------------------|

e|-------------------|-----------------|--------------|--------------------|
B|-------------------|-----------------|----8--10--11-|-10-8--10-8---------|
G|--8--8--8---7-8-10-|-8--8--8---7-5-7-|-7--8--10--11-|-10-8--10-8---------|
D|--8--8--8---7-8-10-|-8--8--8---7-5-7-|-7--8--10--11-|-10-8--10-8---------|
A|-------------------|-----------------|--------------|--------------9--9--|
E|-------------------|-----------------|--------------|--------------------|

e|-----------------------|-----------------------|-------------------------|
B|-----------------------|-----------------------|-------------------------|
G|--11----12-12-12-13-13-|-13-14--14-15-15-15-16-|-(16)--17-17-17-18-18----|
D|--11----12-12-12-13-13-|-13-14--14-15-15-15-16-|-------17-17-17-18-18----|
A|-----------------------|-----------------------|-------------------------|
E|-----------------------|-----------------------|-------------------------|

e|-----------------------|-------------16--------|-191919--------161616----|
B|-----------------------|----------16-----------|-171717--------141414----|
G|--19-19-19-20-(20)\----|-------15--------------|-161616--------131313----|
D|--19-19-19-20-(20)\----|----13-----------------|-141414-----14\111111----|
A|-----------------------|-----------------------|-------------------------|
E|-----------------------|-----------------------|-------------------------|

e|--18--18--18--18--18------------------|-21-21-21-21-21-------19--19--19--|
B|--16--16--16--16--16------------------|-18-18-18-18-18-------17--17--17--|
G|--15--15--15--15--15----18--18-18--18-|-19-19-19-19-19\16----16--16--16--|
D|--13--13--13--13--13----16--16-16--16-|-16-16-16-16-16\14----14--14--14--|
A|--------------------------------------|----------------------------------|
E|--------------------------------------|----------------------------------|

e|--10p15p11-18p16p11-16h18p16p11----18p16p11-18p16p11-18p16p11-16---------|
B|--------------------------------16---------------------------------------|
G|-------------------------------------------------------------------------|
D|-------------------------------------------------------------------------|
A|-------------------------------------------------------------------------|
E|-------------------------------------------------------------------------|

e|--17p16-------18-11-17-17p11----18p16-------17p16p11----18p16------------|
B|--------11h16----------------11-------11h16----------16------------------|
G|-------------------------------------------------------------------------|
D|-------------------------------------------------------------------------|
A|-------------------------------------------------------------------------|
E|-------------------------------------------------------------------------|

e|--------17p16p11----18p16-------17p16p11----18p16-------17p16p11---------|
B|--11h16----------16-------11h16----------16-------11h16----------16------|
G|-------------------------------------------------------------------------|
D|-------------------------------------------------------------------------|
A|-------------------------------------------------------------------------|
E|-------------------------------------------------------------------------|

e|--18p16p11-16h17p16p11-------|-18/--------------------------x\\\\\\\\\\\-|
B|-----------------------11h16-|-------------------------x\\\\x\\\\\\\\\\\-|
G|-----------------------------|-pick scrape>-------x\\\\x\\\\x\\\\\\\\\\\-|
D|-----------------------------|---------------x\\\\x\\\\x\\\\x\\\\\\\\\\\-|
A|-----------------------------|----------x\\\\x\\\\x\\\\x\\\\x\\\\\\\\\\\-|
E|-----------------------------|-----x\\\\x\\\\x\\\\x\\\\x\\\\x\\\\\\\\\\\-|

e|----------------------|-4--4--4----2--4----|------------------|-4--4-----|
B|----------------------|-------2----2--2----|------------------|-2--2-----|
G|--4---4---4---2--4--2-|-------2----2--2--2-|-4--4---4---2-4-2-|-2--2-2h44|
D|--4---4---4---2--4--2-|------------------2-|-4--4---4---2-4-2-|------2h44|
A|----------------------|--------------------|------------------|----------|
E|----------------------|--------------------|------------------|-----x\---|
                                
     tr~~~~~~~~~~~~~~~~~~~~~~~~~~~~~~~~~~~~~~~~~~~~~~~~~~~(R.H. throughout)
e|------------------|-----------------|-------------------|-----0----------|
B|------------------|-----------------|-------------------|-----0----------|
G|------------------|-----------------|-------------------|-----2----------|
D|------------------|-----------------|-------------------|-----3----------|
A|--h2-(0)----------|-h2-(0)----------|-h2-(0)------------|-----3----------|
E|------------------|-----------------|-------------------|-x\--1----------|

e|-------------------------------|---------------------------10--------7---|
B|-------------------------------|-5--------5----------------10--------7---|
G|-------------------------------|-7--------7----------------12--------9---|
D|-------------------------------|-5--------5----------------10--------7---|
A|-------------------------------|-8--------8----(5)/--------13--------10--|
E|--0-0-0----0-0-0----0-0-0----0-|-6--------6----(3)/--------11--------8---|

e|--------------------0-|--------------------------------------------------|
B|--4--------0----------|--12p11p0-11p10p0-10p9p0-9p8p0-8p7p0-7p6p0-6p5p0--|
G|--6--------2----------|--------------------------------------------------|
D|--4--------0----------|--------------------------------------------------|
A|--7--------3----------|--------------------------------------------------|
E|--5--------1----------|--------------------------------------------------|

e|----------------------|--------------------------------------------------|
B|--5p4p0-4p3p0-3\2p1p0-|--12p11p0-11p10p0-10p9p0-9p8p0-8p7p0-7p6p0-6p5p0--|
G|----------------------|--------------------------------------------------|
D|----------------------|--------------------------------------------------|
A|----------------------|--------------------------------------------------|
E|----------------------|--------------------------------------------------|


e|----------------------|--------------------------------------------------|
B|--5p4p0-4p3p0-3\2p1p0-|--12p11p0-13p11p0-14p13p0-15p14p0-16p15p0-17p16p0-|
G|----------------------|--------------------------------------------------|
D|----------------------|--------------------------------------------------|
A|----------------------|--------------------------------------------------|
E|----------------------|--------------------------------------------------|

e|------------------19----(19)\-|-----------------14-14-14-14-14-14--------|
B|--18p17p0-19p18p0-------------|-----------------12-12-12-12-12-12--------|
G|------------------------------|-----------------11-11-11-11-11-11-11\x/9-|
D|------------------------------|-9-9-9-9-9-9-9-9-9--9--9--9--9--9--9-\x/7-|
A|------------------------------|------------------------------------------|
E|------------------------------|------------------------------------------|

e|-----------12-----------------|--------------------------|-14-14---------|
B|--10-10-10-10-10-10-10-10-----|--------12-12-12-12-12-12-|-------12-12---|
G|--9--9--9-----9--9--9--9---9/-|-/11----11-11-11-11-11-11-|---------------|
D|--7--7--7-----7--7--7--7---7/-|-/9-----9--9--9--9--9--9--|---------------|
A|------------------------------|--------------------------|---------------|
E|------------------------------|--------------------------|---------------|

e|------------|-------------------15-15-15-15-15-15----|-14-14-14-14-14-14-|
B|------------|-13-13-13-13-13-13-13-13-13-13-13-13----|-12-12-12-12-12-12-|
G|--11-11-----|-12-12-12-12-12-12-12-12-12-12-12-12----|-11-11-11-11-11-11-|
D|--------9-9-|-10-10-10-10-10-10-10-10-10-10-10-10--9-|-9--9--9--9--9--9--|
A|------------|----------------------------------------|-------------------|
E|------------|----------------------------------------|-------------------|

e|-14-14-12-12-12-12-12-12-12-12-|-14-14-14-14-14-14-14-14-15-15-15-15-15-15
B|-12-12-10-10-10-10-10-10-10-10-|-12-12-12-12-12-12-12-12-13-13-13-13-13-13
G|-11-11-9--9--9--9--9--9--9--9--|-11-11-11-11-11-11-11-11-12-12-12-12-12-12
D|-9--9--7--7--7--7--7--7--7--7--|-9--9--9--9--9--9--9--9--10-10-10-10-10-10
A|-------------------------------|------------------------------------------
E|-------------------------------|------------------------------------------

e|--------|-14--14--15--15--16--16--16--16---17---17-|-18--18-18--19/------|
B|--------|-12--12--13--13--14--14--14--14---15---15-|-16--16-16--17/------|
G|--------|-11--11--12--12--13--13--13--13---14---14-|-15--15-15--16/------|
D|--11-11-|-9---9---10--10--11--11--11--11---12---12-|-13--13-13--14/------|
A|--------|------------------------------------------|----------------x\\--|
E|--------|------------------------------------------|------------------x\\|


Gtr.I
e|-------------------------------------------------------------------------|
B|-------------------------------------------------------------------------|
G|--3-4-3-5/4-3-2-0--------------------------------------------------------|
D|------------------2------------------x2----------------------------------|
A|-------------------------------------------------------------------------|
E|--------------------0----------------------------------------------------|

e|----------------------------------|--------------------------------------|
B|----------------------------------|--------------------------------------|
G|--3-4-3-5\4-3-2-0-3-4-3-5\4-3-2-0-|--3-4-3-5\4-3-2-0---------------------|
D|----------------------------------|------------------2-------------------|
A|----------------------------------|--------------------------------------|
E|----------------------------------|--------------------------------------|

e|-----------------------------(0)-|
B|---------------------------------|
G|---------------------------------|
D|---------------------------------| End.
A|---------------------------------|
E|--0-0-0----0-0-0----0-0-0----(0)-|




I have added these fills after listening to the song more
carefully. Be sure to pinch the + notes.

Fill 1~~~~~~~     +        +
e|---------------------------|----------------------------|
B|----------------7----------|----------------------------|
G|--9-------------7--------5-|-(5)--9------7--9------12---|
D|-----------(0)------0------|----------------------------|
A|--7------------------------|------7------5--7------10---|
E|---------------------------|----------------------------|

Fill 2
  let ring---------------|
e|-------3p0---------------|
B|-------3p0---------------|
G|-------------------------|
D|-------------------------|
A|-------------------------|
E|--0---------------0----0-|









This took forever so learn it, rate it, and play it!
 
============================================================================
| /   slide up
| \   slide down
| h   hammer-on
| p   pull-off
| ~   vibrato
| tr  trill
| R.H.Random Harmonics
| P.M.palm mute
| +   harmonic
| X   Mute note
============================================================================

comments
We did not receive enough feedback on this tab! Please rate:
1 2 3 4 5
1 comment total.
0 reply
Kristen Lynn wrote on April 5 2010, 01:49 pm

I don't know how you do it brotha

I want to post or [tab]
guest
You may want to rate the tab now too:
select rating
Please do not post tabs as comments. Select "correction" instead!