Oops, an error
Loading. Please wait.

Lifestyle Tab

ver1
ver1

Whole song

Interactive

More versions @911Tabs.com
2,157 views 12 this week
5 commentsread comments
1 2 3 4 5
excellent!
x 3
Autoscroll
+/-
esc
set tempo
stop
Contributor
Hey! There's an official Ultimate Guitar app which is ideal
for learning songs when you're away from computer. Get the app
WARNING: You are trying to view
                                    content from Ultimate-Guitar.com
                                    in an unauthorized application,
                                    which is prohibited.

                                    Please use an official Ultimate
                                    Guitar Tabs application for iPhone,
                                    iPad or Android to access legitimate
                                    chords, guitar, bass, and drum tabs
                                    from Ultimate-Guitar.com database.

                                    Type "ultimate guitar tabs" in Apple
                                    App Store's or Android Market's
                                    search to find the application.
-------------------------------------------------------------------------------
                             Lifestyle - Joe Satriani
-------------------------------------------------------------------------------

Tabbed by: Grant Smith
Email: bulletproof__cupid@hotmail.com

Tuning: Rhythm down whole step DGCFAD, Lead & Solo Guitar - Standard EADGBE

| /  slide up
| \  slide down
| h  hammer-on
| p  pull-off
| ~  vibrato
| +  harmonic
| x  Mute note
| ^  Bend

Intro - Lead:

e|-------------------------|-------------------------|
B|-15-15-15-13-13-13-12\10-|-15-15-15-13-13-13-12-12-|
G|-------------------------|-------------------------|
D|-------------------------|-------------------------|
A|-------------------------|-------------------------|
E|-------------------------|-------------------------|

e|-------------------------|-------------------------|
B|-15-15-15-13-13-13-12\10-|-15-15-15-13-13-13-12-12-|
G|-------------------------|-------------------------|
D|-------------------------|-------------------------|
A|-------------------------|-------------------------|
E|-------------------------|-------------------------|

e|-------------------------|-------------------------|
B|-15-15-15-13-13-13-12\10-|-15-15-15-13-13-13-12-12-|
G|-------------------------|-------------------------|
D|-------------------------|-------------------------|
A|-------------------------|-------------------------|
E|-------------------------|-------------------------|

e|-------------------------|-------------------------|
B|-15-15-15-13-13-13-12\10-|-15-15-15-13-13-13-12-12-|
G|-------------------------|-------------------------|
D|-------------------------|-------------------------|
A|-------------------------|-------------------------|
E|-------------------------|-------------------------|

0.17
e|-------------------------|-------------------12-12-|
B|----------13-13-13-15-15-|-13-13-13-15-15-15-------|
G|-15-15-15----------------|-------------------------|
D|-------------------------|-------------------------|
A|-------------------------|-------------------------|
E|-------------------------|-------------------------|

e|-------------------------|-------------------12-12-|
B|----------13-13-13-15-15-|-13-13-13-15-15-15-------|
G|-15-15-15----------------|-------------------------|
D|-------------------------|-------------------------|
A|-------------------------|-------------------------|
E|-------------------------|-------------------------|

0.25
e|-------------------------|-------------------------|
B|-15-15-15-13-13-13-12\10-|-15-15-15-13-13-13-12-12-|
G|-------------------------|-------------------------|
D|-------------------------|-------------------------|
A|-------------------------|-------------------------|
E|-------------------------|-------------------------|

e|-------------------------|-------------------------|
B|-15-15-15-13-13-13-12\10-|-15-15-15-13-13-13-12-12-|
G|-------------------------|-------------------------|
D|-------------------------|-------------------------|
A|-------------------------|-------------------------|
E|-------------------------|-------------------------|

Intro - Rhythm:

d|-------------------------|-------------------------|
A|-------------------------|-------------------------|
F|-------------------------|-------------------------|
c|-2--------5-----5--7-\---|-2--------5-----5--7-\---|
G|-2-----x--5-----5--7-\---|-2-----x--5-----5--7-\---|
D|-0-----x--3-----3--5-\---|-0-----x--3-----3--5-\---|

d|-------------------------|-------------------------|
A|-------------------------|-------------------------|
F|-------------------------|-------------------------|
c|-2--------5-----5--7-\---|-2--------5-----5--7-\---|
G|-2-----x--5-----5--7-\---|-2-----x--5-----5--7-\---|
D|-0-----x--3-----3--5-\---|-0-----x--3-----3--5-\---|

d|-------------------------|-------------------------|
A|-------------------------|-------------------------|
F|-------------------------|-------------------------|
c|-2--------5-----5--7-\---|-2--------5-----5--7-\---|
G|-2-----x--5-----5--7-\---|-2-----x--5-----5--7-\---|
D|-0-----x--3-----3--5-\---|-0-----x--3-----3--5-\---|

d|-------------------------|-------------------------|
A|-------------------------|-------------------------|
F|-------------------------|-------------------------|
c|-2--------5-----5--7-\---|-2--------5-----5--7-\---|
G|-2-----x--5-----5--7-\---|-2-----x--5-----5--7-\---|
D|-0-----x--3-----3--5-\---|-0-----x--3-----3--5-\---|

0.17
d|-------------------------|-------------------------|
A|-------------------------|-------------------------|
F|-------------------------|-------------------7--7--|
c|-7--7--7--9--9--9--10-10-|-9--9--9--10-10-10-7--7--|
G|-7--7--7--9--9--9--10-10-|-9--9--9--10-10-10-5--5--|
D|-5--5--5--7--7--7--8--8--|-7--7--7--8--8--8--------|

d|-------------------------|-------------------------|
A|-------------------------|-------------------------|
F|-------------------------|-------------------7--7--|
c|-7--7--7--9--9--9--10-10-|-9--9--9--10-10-10-7--7--|
G|-7--7--7--9--9--9--10-10-|-9--9--9--10-10-10-5--5--|
D|-5--5--5--7--7--7--8--8--|-7--7--7--8--8--8--------|

0.25
d|-------------------------|-------------------------|
A|-------------------------|---------------------


----|
F|-------------------------|-------------------------|
c|-2--------5-----5--7-\---|-2--------5-----5--7-\---|
G|-2-----x--5-----5--7-\---|-2-----x--5-----5--7-\---|
D|-0-----x--3-----3--5-\---|-0-----x--3-----3--5-\---|

d|-------------------------|-------------------------|
A|-------------------------|-------------------------|
F|-------------------------|-------------------------|
c|-2--------5-----5--7-\---|-2--------5-----5--7-\---|
G|-2-----x--5-----5--7-\---|-2-----x--5-----5--7-\---|
D|-0-----x--3-----3--5-\---|-0-----x--3-----3--5-\---|

Verse - Rhythm:
0.32 Palm mute verse!
d|-------------------------|-------------------------|
A|-------------------------|-------------------------|
F|-------------------------|-------------------------|
c|-------------------------|-------------------------|
G|-2--2--2--5--5--5--7--9\-|-2--2--2--5--5--5--7--9\-|
D|-0--0--0--3--3--3--5--7\-|-0--0--0--3--3--3--5--7\-|

d|-------------------------|-------------------------|
A|-------------------------|-------------------------|
F|-------------------------|-------------------------|
c|-------------------------|-------------------------|
G|-2--2--2--5--5--5--7--9\-|-2--2--2--5--5--5--7--7\-|
D|-0--0--0--3--3--3--5--7\-|-0--0--0--3--3--3--5--5\-|

e|-------------------------|-------------------------|
B|-------------------------|-------------------------|
G|-------------------------|-------------------------|
D|----------5--5--5--7--7\-|----------5--5--5--7--7\-|
A|-7--7--7--3--3--3--5--5\-|-7--7--7--3--3--3--5--5\-|
E|-5--5--5-----------------|-5--5--5-----------------|

d|-------------------------|-------------------------|
A|-------------------------|-------------------------|
F|-------------------------|-------------------------|
c|-------------------------|-------------------------|
G|-2--2--2--5--5--5--7--9\-|-2--2--2--5--5--5--7--7\-|
D|-0--0--0--3--3--3--5--7\-|-0--0--0--3--3--3--5--5\-|


e|-------------------------|-------------------------|
B|-------------------------|-------------------------|
G|-------------------------|-------------------------|
D|-------------------------|----------5--5--5--7--7--|
A|-9--9--9\-2--2--2--2--2--|-7--7--7--3--3--3--5--5--|
E|-7--7--7\-0--0--0--0--0--|-5--5--5-----------------|

d|-------------------------|-------------------------|
A|-------------------------|-------------------------|
F|-------------------------|-------------------------|
c|-------------------------|-------------------------|
G|-2--2--2--5--5--5--7--9\-|-2--7--5-----------------|
D|-0--0--0--3--3--3--5--7\-|-0--------7--6--5\-3-/5--|

Chorus - Rhythm:
0.55
d|-------------------------|-------------------------|
A|-------------------------|-------------------------|
F|-------------------------|-------------------------|
c|-------------------------|-------------------------|
G|-2--2--2--5--5--5--7--9\-|-2--2--2--5--5--5--7--9\-|
D|-0--0--0--3--3--3--5--7\-|-0--0--0--3--3--3--5--7\-|

d|-------------------------|-------------------------|
A|-------------------------|-------------------------|
F|-------------------------|-------------------------|
c|-------------------------|-------------------------|
G|-2--2--2--5--5--5--7--9\-|-2--2--2--5--5--5--7--7\-|
D|-0--0--0--3--3--3--5--7\-|-0--0--0--3--3--3--5--5\-|

e|-------------------------|-------------------------|
B|-------------------------|-------------------------|
G|-------------------------|-------------------------|
D|----------5--5--5--7--7\-|----------5--5--5--7--7\-|
A|-7--7--7--3--3--3--5--5\-|-7--7--7--3--3--3--5--5\-|
E|-5--5--5-----------------|-5--5--5-----------------|

d|-------------------------|-------------------------|
A|-------------------------|-------------------------|
F|-------------------------|-------------------------|
c|-------------------------|-------------------------|
G|-2--2--2--5--5--5--7--9\-|-2--2--2--5--5--5--7--7\-|
D|-0--0--0--3--3--3--5--7\-|-0--0--0--3--3--3--5--5\-|


e|-------------------------|-------------------------|
B|-------------------------|-------------------------|
G|-------------------------|-------------------------|
D|-------------------------|----------5--5--5--7--7--|
A|-9--9--9\-2--2--2--2--2--|-7--7--7--3--3--3--5--5--|
E|-7--7--7\-0--0--0--0--0--|-5--5--5-----------------|

d|-------------------------|-------------------------|
A|-------------------------|-------------------------|
F|-------------------------|-------------------------|
c|-------------------------|-------------------------|
G|-2--2--2--5--5--5--7--9\-|-2--7--5-----------------|
D|-0--0--0--3--3--3--5--7\-|-0--------7--6--5\-3-/5--|

Verse - Rhythm:
1.18 Palm mute verse!
d|-------------------------|-------------------------|
A|-------------------------|-------------------------|
F|-------------------------|-------------------------|
c|-------------------------|-------------------------|
G|-2--2--2--5--5--5--7--9\-|-2--2--2--5--5--5--7--9\-|
D|-0--0--0--3--3--3--5--7\-|-0--0--0--3--3--3--5--7\-|

d|-------------------------|-------------------------|
A|-------------------------|-------------------------|
F|-------------------------|-------------------------|
c|-------------------------|-------------------------|
G|-2--2--2--5--5--5--7--9\-|-2--2--2--5--5--5--7--7\-|
D|-0--0--0--3--3--3--5--7\-|-0--0--0--3--3--3--5--5\-|

e|-------------------------|-------------------------|
B|-------------------------|-------------------------|
G|-------------------------|-------------------------|
D|----------5--5--5--7--7\-|----------5--5--5--7--7\-|
A|-7--7--7--3--3--3--5--5\-|-7--7--7--3--3--3--5--5\-|
E|-5--5--5-----------------|-5--5--5-----------------|

d|-------------------------|-------------------------|
A|-------------------------|-------------------------|
F|-------------------------|-------------------------|
c|-------------------------|-------------------------|
G|-2--2--2--5--5--5--7--9\-|-2--2--2--5--5--5--7--7\-|
D|-0--0--0--3--3--3--5--7\-|-0--0--0--3--3--3--5--5\-|


e|-------------------------|-------------------------|
B|-------------------------|-------------------------|
G|-------------------------|-------------------------|
D|-------------------------|----------5--5--5--7--7--|
A|-9--9--9\-2--2--2--2--2--|-7--7--7--3--3--3--5--5--|
E|-7--7--7\-0--0--0--0--0--|-5--5--5-----------------|

d|-------------------------|-------------------------|
A|-------------------------|-------------------------|
F|-------------------------|-------------------------|
c|-------------------------|-------------------------|
G|-2--2--2--5--5--5--7--9\-|-2--7--5-----------------|
D|-0--0--0--3--3--3--5--7\-|-0--------7--6--5\-3-/5--|

Chorus - Rythm:
1.39
d|-------------------------|-------------------------|
A|-------------------------|-------------------------|
F|-------------------------|-------------------------|
c|-------------------------|-------------------------|
G|-2--2--2--5--5--5--7--9\-|-2--2--2--5--5--5--7--9\-|
D|-0--0--0--3--3--3--5--7\-|-0--0--0--3--3--3--5--7\-|

d|-------------------------|-------------------------|
A|-------------------------|-------------------------|
F|-------------------------|-------------------------|
c|-------------------------|-------------------------|
G|-2--2--2--5--5--5--7--9\-|-2--2--2--5--5--5--7--7\-|
D|-0--0--0--3--3--3--5--7\-|-0--0--0--3--3--3--5--5\-|

e|-------------------------|-------------------------|
B|-------------------------|-------------------------|
G|-------------------------|-------------------------|
D|----------5--5--5--7--7\-|----------5--5--5--7--7\-|
A|-7--7--7--3--3--3--5--5\-|-7--7--7--3--3--3--5--5\-|
E|-5--5--5-----------------|-5--5--5-----------------|

d|-------------------------|-------------------------|
A|-------------------------|-------------------------|
F|-------------------------|-------------------------|
c|-------------------------|-------------------------|
G|-2--2--2--5--5--5--7--9\-|-2--2--2--5--5--5--7--7\-|
D|-0--0--0--3--3--3--5--7\-|-0--0--0--3--3--3--5--5\-|


e|-------------------------|-------------------------|
B|-------------------------|-------------------------|
G|-------------------------|-------------------------|
D|-------------------------|----------5--5--5--7--7--|
A|-9--9--9\-2--2--2--2--2--|-7--7--7--3--3--3--5--5--|
E|-7--7--7\-0--0--0--0--0--|-5--5--5-----------------|

d|-------------------------|-------------------------|
A|-------------------------|-------------------------|
F|-------------------------|-------------------------|
c|-------------------------|-------------------------|
G|-2--2--2--5--5--5--7--9\-|-2--7--5-----------------|
D|-0--0--0--3--3--3--5--7\-|-0--------7--6--5\-3-/5--|

Bridge - Lead:
2.04
e|-------------------------|-------------------------|
B|-15-15-15-13-13-13-12\10-|-15-15-15-13-13-13-12-12-|
G|-------------------------|-------------------------|
D|-------------------------|-------------------------|
A|-------------------------|-------------------------|
E|-------------------------|-------------------------|

e|-------------------------|-------------------------|
B|-15-15-15-13-13-13-12\10-|-15-15-15-13-13-13-12-12-|
G|-------------------------|-------------------------|
D|-------------------------|-------------------------|
A|-------------------------|-------------------------|
E|-------------------------|-------------------------|

e|-------------------------|-------------------------|
B|-15-15-15-13-13-13-12\10-|-15-15-15-13-13-13-12-12-|
G|-------------------------|-------------------------|
D|-------------------------|-------------------------|
A|-------------------------|-------------------------|
E|-------------------------|-------------------------|

e|-------------------------|-------------------------|
B|-15-15-15-13-13-13-12\10-|-15-15-15-13-13-13-12-12-|
G|-------------------------|-------------------------|
D|-------------------------|-------------------------|
A|-------------------------|-------------------------|
E|-------------------------|-------------------------|

2.19
e|-------------------------|-------------------12-12-|
B|----------13-13-13-15-15-|-13-13-13-15-15-15-------|
G|-15-15-15----------------|-------------------------|
D|-------------------------|-------------------------|
A|-------------------------|-------------------------|
E|-------------------------|-------------------------|

e|-------------------------|-------------------12-12-|
B|----------13-13-13-15-15-|-13-13-13-15-15-15-------|
G|-15-15-15----------------|-------------------------|
D|-------------------------|-------------------------|
A|-------------------------|-------------------------|
E|-------------------------|-------------------------|


Bridge - Rhythm:
2.04
d|-------------------------|-------------------------|
A|-------------------------|-------------------------|
F|-------------------------|-------------------------|
c|-2--------5-----5--7-\---|-2--------5-----5--7-\---|
G|-2-----x--5-----5--7-\---|-2-----x--5-----5--7-\---|
D|-0-----x--3-----3--5-\---|-0-----x--3-----3--5-\---|

d|-------------------------|-------------------------|
A|-------------------------|-------------------------|
F|-------------------------|-------------------------|
c|-2--------5-----5--7-\---|-2--------5-----5--7-\---|
G|-2-----x--5-----5--7-\---|-2-----x--5-----5--7-\---|
D|-0-----x--3-----3--5-\---|-0-----x--3-----3--5-\---|

d|-------------------------|-------------------------|
A|-------------------------|-------------------------|
F|-------------------------|-------------------------|
c|-2--------5-----5--7-\---|-2--------5-----5--7-\---|
G|-2-----x--5-----5--7-\---|-2-----x--5-----5--7-\---|
D|-0-----x--3-----3--5-\---|-0-----x--3-----3--5-\---|

d|-------------------------|-------------------------|
A|-------------------------|-------------------------|
F|-------------------------|-------------------------|
c|-2--------5-----5--7-\---|-2--------5-----5--7-\---|
G|-2-----x--5-----5--7-\---|-2-----x--5-----5--7-\---|
D|-0-----x--3-----3--5-\---|-0-----x--3-----3--5-\---|

2.19
d|-------------------------|-------------------------|
A|-------------------------|-------------------------|
F|-------------------------|-------------------7--7--|
c|-7--7--7--9--9--9--10-10-|-9--9--9--10-10-10-7--7--|
G|-7--7--7--9--9--9--10-10-|-9--9--9--10-10-10-5--5--|
D|-5--5--5--7--7--7--8--8--|-7--7--7--8--8--8--------|

d|-------------------------|-------------------------|
A|-------------------------|-------------------------|
F|-------------------------|-------------------7--7--|
c|-7--7--7--9--9--9--10-10-|-9--9--9--10-10-10-7--7--|
G|-7--7--7--9--9--9--10-10-|-9--9--9--10-10-10-5--5--|
D|-5--5--5--7--7--7--8--8--|-7--7--7--8--8--8--------|

Solo - Lead:
Legato 2.27
e|----------------12^-------------------------------------------|
B|-13^--15-14----------15-14----14^--13-15-13------------13-----|
G|------------13-------------14---------------14-12^--10-----14-|
D|--------------------------------------------------------------|
A|--------------------------------------------------------------|
E|--------------------------------------------------------------|

e|---------------------13^----------13-------|--------------------------------|
B|--------15-13^-15--------15-13-15----15-13-|-15----13^-------15-------------|
G|-12^-12-----------14-----------------------|----14-----14-12^---13^13^13^13^|
D|-------------------------------------------|--------------------------------|
A|-------------------------------------------|--------------------------------|
E|-------------------------------------------|--------------------------------|

e|-----------------------------------|--------------------|
B|-------------------------------13^-|--------------------|
G|-14-13-12----12----------12----12^-|--------14----------|
D|----------15----12-15-------15-----|------------12-15^--|
A|-----------------------------------|--------------------|
E|-----------------------------------|--------------------|

e|------------------------------------|--------13--15^---|-13---15---13^---------13^-|
B|--------------------------------15^-|--13-15-----------|----15---15---15-13-15^----|
G|-------------------------12^-12-----|------------------|---------------------------|
D|-12-------15-12-------15------------|------------------|---------------------------|
A|----15-12-------15-12---------------|------------------|---------------------------|
E|------------------------------------|------------------|---------------------------|

Verse - Rhythm:
Palm mute verse!
d|-------------------------|-------------------------|
A|-------------------------|-------------------------|
F|-------------------------|-------------------------|
c|-------------------------|-------------------------|
G|-2--2--2--5--5--5--7--9\-|-2--2--2--5--5--5--7--9\-|
D|-0--0--0--3--3--3--5--7\-|-0--0--0--3--3--3--5--7\-|

d|-------------------------|-------------------------|
A|-------------------------|-------------------------|
F|-------------------------|-------------------------|
c|-------------------------|-------------------------|
G|-2--2--2--5--5--5--7--9\-|-2--2--2--5--5--5--7--7\-|
D|-0--0--0--3--3--3--5--7\-|-0--0--0--3--3--3--5--5\-|

e|-------------------------|-------------------------|
B|-------------------------|-------------------------|
G|-------------------------|-------------------------|
D|----------5--5--5--7--7\-|----------5--5--5--7--7\-|
A|-7--7--7--3--3--3--5--5\-|-7--7--7--3--3--3--5--5\-|
E|-5--5--5-----------------|-5--5--5-----------------|

d|-------------------------|-------------------------|
A|-------------------------|-------------------------|
F|-------------------------|-------------------------|
c|-------------------------|-------------------------|
G|-2--2--2--5--5--5--7--9\-|-2--2--2--5--5--5--7--7\-|
D|-0--0--0--3--3--3--5--7\-|-0--0--0--3--3--3--5--5\-|

e|-------------------------|-------------------------|
B|-------------------------|-------------------------|
G|-------------------------|-------------------------|
D|-------------------------|-------------------------|
A|-------------------------|-------------------------|
E|-------------------------|-------------------------|

d|--------x----------------|-------------------------|
A|----------x--------------|-------------------------|
F|------------x------------|-------------------------|
c|--------------x-----x-x--|-------------------------|
G|----------------x-x-x-x--|-2--7--5-----------------|
D|-------------------------|-0--------7--6--5\-3-/5--|

Chorus - Rythm:

d|-------------------------|-------------------------|
A|-------------------------|-------------------------|
F|-------------------------|-------------------------|
c|-------------------------|-------------------------|
G|-2--2--2--5--5--5--7--9\-|-2--2--2--5--5--5--7--9\-|
D|-0--0--0--3--3--3--5--7\-|-0--0--0--3--3--3--5--7\-|

d|-------------------------|-------------------------|
A|-------------------------|-------------------------|
F|-------------------------|-------------------------|
c|-------------------------|-------------------------|
G|-2--2--2--5--5--5--7--9\-|-2--2--2--5--5--5--7--7\-|
D|-0--0--0--3--3--3--5--7\-|-0--0--0--3--3--3--5--5\-|

e|-------------------------|-------------------------|
B|-------------------------|-------------------------|
G|-------------------------|-------------------------|
D|----------5--5--5--7--7\-|----------5--5--5--7--7\-|
A|-7--7--7--3--3--3--5--5\-|-7--7--7--3--3--3--5--5\-|
E|-5--5--5-----------------|-5--5--5-----------------|

d|-------------------------|-------------------------|
A|-------------------------|-------------------------|
F|-------------------------|-------------------------|
c|-------------------------|-------------------------|
G|-2--2--2--5--5--5--7--9\-|-2--2--2--5--5--5--7--7\-|
D|-0--0--0--3--3--3--5--7\-|-0--0--0--3--3--3--5--5\-|


e|-------------------------|-------------------------|
B|-------------------------|-------------------------|
G|-------------------------|-------------------------|
D|-------------------------|----------5--5--5--7--7--|
A|-9--9--9\-2--2--2--2--2--|-7--7--7--3--3--3--5--5--|
E|-7--7--7\-0--0--0--0--0--|-5--5--5-----------------|

d|-------------------------|-------------------------|
A|-------------------------|-------------------------|
F|-------------------------|-------------------------|
c|-------------------------|-------------------------|
G|-2--2--2--5--5--5--7--9\-|-2--7--5-----------------|
D|-0--0--0--3--3--3--5--7\-|-0--------7--6--5\-3-/5--|

Chorus - Lead:

e|-----------------|-----------|----------------|------------|
B|-----------------|-----------|----------------|------------|
G|-----------------|-----------|----------------|-----10-----|
D|----------10-10^-|--10-------|---------10-10^-|--10--------|
A|-----------------|-----------|----------------|------------|
E|-----------------|-----------|----------------|------------|

e|-------------|-----------|-----------------------------------|------------------|
B|-------------|-----------|--------10-------------------------|------------------|
G|-------10\12-|-10\12--10-|--10-12---12-10--12--10------------|------------------|
D|-------------|-----------|---------------12--12--12-10-------|------------------|
A|-------------|-----------|-----------------------------12-10-|-8-8\10--8--------|
E|-------------|-----------|-----------------------------------|-------10-10-8-10-|

e|--------|--------|--------------------|-----------------------------------------|
B|--------|--------|-------13-----------|-8----------------15-13---------13-------|
G|--------|--------|--10^-----12--10--7-|---10-7----7-----------14-12-14----12^---|
D|--------|--------|--------------------|--------10-------------------------------|
A|--------|--------|--------------------|-----------------------------------------|
E|--------|--------|--------------------|-----------------------------------------|

Bridge - Solo:

e|-------------------|--------------|------------|------------------|
B|-15---13^----13----|----13^--13^--|--------15^-|---18p15----(15)--|
G|----------------14-|--------------|------------|------------------|
D|-------------------|--------------|------------|------------------|
A|-------------------|--------------|------------|------------------|
E|-------------------|--------------|------------|------------------|

e|-------------------------------|------------|
B|-------13^-15----13^-15--------|------------|
G|----14--------14--------14-12^-|-10---(10\)-|
D|-------------------------------|------------|
A|-------------------------------|------------|
E|-------------------------------|------------|

e|--------------------------------|------------------------------------------------|
B|--------------------------------|-----15--13-15---13-----10----------------------|
G|----------------------10-12^-10-|-12^----------14^---12^----14-12-10----12----10-|
D|--15-12-10------10-12-----------|------------------------------------12----12----|
A|-----------12-------------------|------------------------------------------------|
E|--------------------------------|------------------------------------------------|

e|---------13--|----------13-----------|----15^--|----------------------|
B|-----18^-----|--15---15---15---(15)--|---------|--15^-18-15----(15)---|
G|-------------|----14-----------------|---------|----------------------|
D|-------------|-----------------------|---------|----------------------|
A|-------------|-----------------------|---------|----------------------|
E|-------------|-----------------------|---------|----------------------|

e|--------------------------|--------------------|
B|-x-x-10-x-x-10-x-x-10\x-x-|-10-x-x-10-x-x-10-\-|
G|-x-x-10-x-x-10-x-x-10\x-x-|-10-x-x-10-x-x-10-\-|
D|-x-x-12-x-x-12-x-x-12\x-x-|-12-x-x-12-x-x-12-\-|
A|--------------------------|--------------------|
E|--------------------------|--------------------|

e|------------------------------|------13^---------------------------|
B|---------15-13---------15-13^-|-15-13----15-13---------------------|
G|-12^-12^------14-12-14--------|---------------14-12----------------|
D|------------------------------|--------------------15-12-----------|
A|------------------------------|-------------------------15-12------|
E|------------------------------|------------------------------15-13-|

Bridge Lead:

e|-------------------------|-------------------------|
B|-15-15-15-13-13-13-12\10-|-15-15-15-13-13-13-12-12-|
G|-------------------------|-------------------------|
D|-------------------------|-------------------------|
A|-------------------------|-------------------------|
E|-------------------------|-------------------------|

e|-------------------------|-------------------------|
B|-15-15-15-13-13-13-12\10-|-15-15-15-13-13-13-12-12-|
G|-------------------------|-------------------------|
D|-------------------------|-------------------------|
A|-------------------------|-------------------------|
E|-------------------------|-------------------------|

e|-------------------------|-------------------------|
B|-15-15-15-13-13-13-12\10-|-15-15-15-13-13-13-12-12-|
G|-------------------------|-------------------------|
D|-------------------------|-------------------------|
A|-------------------------|-------------------------|
E|-------------------------|-------------------------|

e|-------------------------|-------------------------|
B|-15-15-15-13-13-13-12\10-|-15-15-15-13-13-13-12-12-|
G|-------------------------|-------------------------|
D|-------------------------|-------------------------|
A|-------------------------|-------------------------|
E|-------------------------|-------------------------|
e|-------------------------|-------------------------|
B|-15-15-15-13-13-13-12\10-|-15-15-15-13-13-13-12-12-|
G|-------------------------|-------------------------|
D|-------------------------|-------------------------|
A|-------------------------|-------------------------|
E|-------------------------|-------------------------|

e|-------------------------|-------------------------|
B|-15-15-15-13-13-13-12\10-|-15-15-15-13-13-13-12-12-|
G|-------------------------|-------------------------|
D|-------------------------|-------------------------|
A|-------------------------|-------------------------|
E|-------------------------|-------------------------|

e|-------------------------|-------------------------|
B|-15-15-15-13-13-13-12\10-|-15-15-15-13-13-13-12-12-|
G|-------------------------|-------------------------|
D|-------------------------|-------------------------|
A|-------------------------|-------------------------|
E|-------------------------|-------------------------|

e|-------------------------|-------------------------|
B|-15-15-15-13-13-13-12\10-|-15-15-15-13-13-13-12-12-|
G|-------------------------|-------------------------|
D|-------------------------|-------------------------|
A|-------------------------|-------------------------|
E|-------------------------|-------------------------|

Bridge Rhythm:

d|-------------------------|-------------------------|
A|-------------------------|-------------------------|
F|-------------------------|-------------------------|
c|-2--------5-----5--7-\---|-2--------5-----5--7-\---|
G|-2-----x--5-----5--7-\---|-2-----x--5-----5--7-\---|
D|-0-----x--3-----3--5-\---|-0-----x--3-----3--5-\---|

d|-------------------------|-------------------------|
A|-------------------------|-------------------------|
F|-------------------------|-------------------------|
c|-2--------5-----5--7-\---|-2--------5-----5--7-\---|
G|-2-----x--5-----5--7-\---|-2-----x--5-----5--7-\---|
D|-0-----x--3-----3--5-\---|-0-----x--3-----3--5-\---|

d|-------------------------|-------------------------|
A|-------------------------|-------------------------|
F|-------------------------|-------------------------|
c|-2--------5-----5--7-\---|-2--------5-----5--7-\---|
G|-2-----x--5-----5--7-\---|-2-----x--5-----5--7-\---|
D|-0-----x--3-----3--5-\---|-0-----x--3-----3--5-\---|

d|-------------------------|-------------------------|
A|-------------------------|-------------------------|
F|-------------------------|-------------------------|
c|-2--------5-----5--7-\---|-2--------5-----5--7-\---|
G|-2-----x--5-----5--7-\---|-2-----x--5-----5--7-\---|
D|-0-----x--3-----3--5-\---|-0-----x--3-----3--5-\---|
d|-------------------------|-------------------------|
A|-------------------------|-------------------------|
F|-------------------------|-------------------------|
c|-2--------5-----5--7-\---|-2--------5-----5--7-\---|
G|-2-----x--5-----5--7-\---|-2-----x--5-----5--7-\---|
D|-0-----x--3-----3--5-\---|-0-----x--3-----3--5-\---|

d|-------------------------|-------------------------|
A|-------------------------|-------------------------|
F|-------------------------|-------------------------|
c|-2--------5-----5--7-\---|-2--------5-----5--7-\---|
G|-2-----x--5-----5--7-\---|-2-----x--5-----5--7-\---|
D|-0-----x--3-----3--5-\---|-0-----x--3-----3--5-\---|

d|-------------------------|-------------------------|
A|-------------------------|-------------------------|
F|-------------------------|-------------------------|
c|-2--------5-----5--7-\---|-2--------5-----5--7-\---|
G|-2-----x--5-----5--7-\---|-2-----x--5-----5--7-\---|
D|-0-----x--3-----3--5-\---|-0-----x--3-----3--5-\---|

d|-------------------------|-------------------------|
A|-------------------------|-------------------------|
F|-------------------------|-------------------------|
c|-2--------5-----5--7-\---|-2--------5-----5--7-\---|
G|-2-----x--5-----5--7-\---|-2-----x--5-----5--7-\---|
D|-0-----x--3-----3--5-\---|-0-----x--3-----3--5-\---|

Outro - Lead:

e|--------|-------|-------|-------|
B|---12^--|---10^-|-10----|-------|
G|--------|-------|-------|-------|
D|--------|-------|-------|-------|
A|--------|-------|-------|-------|
E|--------|-------|-------|-------|

e|--------|-------|-------|-------|
B|---12^--|---13^-|-10----|-------|
G|--------|-------|-------|-------|
D|--------|-------|-------|-------|
A|--------|-------|-------|-------|
E|--------|-------|-------|-------|

e|--------|-------|-------|-------|
B|---12^--|---10^-|-10----|-------|
G|--------|-------|-------|-------|
D|--------|-------|-------|-------|
A|--------|-------|-------|-------|
E|--------|-------|-------|-------|

e|--------|-------|-------|-------|
B|---12^--|---13^-|-10----|-------|
G|--------|-------|-------|-------|
D|--------|-------|-------|-------|
A|--------|-------|-------|-------|
E|--------|-------|-------|-------|

Outro - Rhythm:
d|-------------------------|-------------------------|
A|-------------------------|-------------------------|
F|-------------------------|-------------------------|
c|-2--------5-----5--7-\---|-2--------5-----5--7-\---|
G|-2-----x--5-----5--7-\---|-2-----x--5-----5--7-\---|
D|-0-----x--3-----3--5-\---|-0-----x--3-----3--5-\---|

d|-------------------------|-------------------------|
A|-------------------------|-------------------------|
F|-------------------------|-------------------------|
c|-2--------5-----5--7-\---|-2--------5-----5--7-\---|
G|-2-----x--5-----5--7-\---|-2-----x--5-----5--7-\---|
D|-0-----x--3-----3--5-\---|-0-----x--3-----3--5-\---|

d|-------------------------|-------------------------|
A|-------------------------|-------------------------|
F|-------------------------|-------------------------|
c|-2--------5-----5--7-\---|-2--------5-----5--7-\---|
G|-2-----x--5-----5--7-\---|-2-----x--5-----5--7-\---|
D|-0-----x--3-----3--5-\---|-0-----x--3-----3--5-\---|

d|-------------------------|-------------------------|
A|-------------------------|-------------------------|
F|-------------------------|-------------------------|
c|-2--------5-----5--7-\---|-2--------5-----5--7-\---|
G|-2-----x--5-----5--7-\---|-2-----x--5-----5--7-\---|
D|-0-----x--3-----3--5-\---|-0-----x--3-----3--5-\---|


===============================================================================
comments
We did not receive enough feedback on this tab! Please rate:
print report bad tab
1 2 3 4 5
5 comments total. Showing first comments.
0 reply
Metro2Lucid wrote on February 8 2005, 12:00 am

all i know is that the lead part you have written out is wrong. he doesnt play those notes 3 times, he hits it once and uses his tremelo bar

0 reply
Metro2Lucid wrote on February 8 2005, 12:00 am

btw, if you go to Satriani's website, you can find a video that shows Satch recording a bunch of songs. it shows a clip of him playing this song, and he does use the tremelo bar

0 reply
TheEdge23 wrote on February 17 2005, 12:00 am

I was aware of that ;) But not everyone has a tremelo bar, so i tabbed it this way. The same as i didnt transcribbed the rythm for a 6 string guitar when it is played with a 7 string, not many people have a 7 string guitar so i would have been pointless tabbing it

I want to post or [tab]
guest
You may want to rate the tab now too:
select rating
Please do not post tabs as comments. Select "correction" instead!