Oops, an error
Loading. Please wait.

Memories Tab

ver1
ver1

Whole song

Interactive

More versions @911Tabs.com
3,383 views 1 this week
no commentswrite comment
1 2 3 4 5
please rate
Autoscroll
+/-
esc
set tempo
stop
Contributor
Difficulty
intermediate
Hey! There's an official Ultimate Guitar app which is ideal
for learning songs when you're away from computer. Get the app
WARNING: You are trying to view
                                    content from Ultimate-Guitar.com
                                    in an unauthorized application,
                                    which is prohibited.

                                    Please use an official Ultimate
                                    Guitar Tabs application for iPhone,
                                    iPad or Android to access legitimate
                                    chords, guitar, bass, and drum tabs
                                    from Ultimate-Guitar.com database.

                                    Type "ultimate guitar tabs" in Apple
                                    App Store's or Android Market's
                                    search to find the application.
I saw that nobody tabbed this yet so I thought I might as well throw it up. It's not 
hard once you play to it a thousand times. I hope you enjoy it.
it needs a few revisions but they're not hard to figure out.


|----------------------------------|
|----------------------------------|
|-------5--------2-------5-------2-|
|-----9--------5-------9-------5---|
|---7--------5-------7-------5-----|
|-5--------3-------5-------3-------|


|-12~~-------10-h12p10---------------------------------|
|-----13-----------------10h12h13-12-10-8--------------|
|-------------------------------------------9---7-h9p7-|
|------------------------------------------------------|
|------------------------------------------------------|
|------------------------------------------------------|


|-12~~-----------15~~------------------------------|
|-------13--------------x12h13-12-10-8-----10------|
|---------------------------------------9----------|
|--------------------------------------------------|
|--------------------------------------------------|
|--------------------------------------------------|


|--------------------------------------------------------------------------|
|--------------8~~--10----10---------10h11--10--8---8h10p8-----------------|
|-9p7--9--10---------------------------------------------------10----9h10p9|
|-----------------------8--------------------------------------------------|
|--------------------------------------------------------------------------|
|--------------------------------------------------------------------------|


|----------------------------------------------------------------|
|----------------------------------------------------------------|
|7--9-----10/12p10--9--7----7------5--7--9--9/109--5--5/7--7/9-7-|
|----------------------------------------------------------------|
|----------------------------------------------------------------|
|----------------------------------------------------------------|


|-------------------------------------8------------------|
|------------8----10--------10--------------10--8--------|
|-9-7--9--10---------------------------------------------|
|---------------------8----------------------------------|
|--------------------------------------------------------|
|--------------------------------------------------------|


----------------------------------------------------------------------------|
^8~-8/108-------------------------------------------------------------------|
----------10--9h10p9--7--9--10----10/12p10--9--7-----/5--7--9--10--10/12--95|
----------------------------------------------------------------------------|
----------------------------------------------------------------------------|
----------------------------------------------------------------------------|

|-------------------------------------------|10--10--8---8---|
|-------------------------------------------|13--13--12--12--|
|-------------------------------------------|----------------|
|-9---10--13--13/14--13-----10--9--7--9--10-|----------------|
|-7----8--11--11/12--11------8--7--5--7---8-|----------------|
|-------------------------------------------|----------------|


-----------------------------------------------------------------------|
10--10--9--9-----------------------------------------------------------|
10--10--9--9--10--10--9--9---------------------------------------------|
--------------10--10--9--9--9--10--13--14---16--18--18/19--18--16--15--|
----------------------------7---8--11--12---14--16--16/17--16--14--13--|
-----------------------------------------------------------------------|


|-------0----------0--|----17/10----15--15/8--------13/6----12/5----|
|-------0----------0--|---------------------------------------------|
|-------9----------9--|---------------------------------------------|
|-2--2--9----2--2--9--|---------------------------------------------|
|-2--2--7----2--2--7--|---------------------------------------------|
|-0--0--0----0--0--0--|---------------------------------------------|


---------------------------------17/10----15/8----13/6-----------|
-----------------------------------------------------------------|
------7b8r7b8r7p5------------------------------------------------|
----x-------------7p5--------------------------------------------|
--x-------------------7------------------------------------------|
------------------------8b10r8-----------------------------------|


--125----------------------------------|-------------------------------------|
---------------------------------------|-------------------------------------|
---------------------------------------|-------------------------------------|
---------------------------------------|----------------2h3h5p3p2------------|
-----------------3--5--3b5r3-----------|----------2h3h5-----------5-2h3h5----|
---------/3----5-------------5^^3b5----|----1h3h5----------------------------|


-----------------------------------------------------------------------------|
-----------------------------------------------------------------------------|
-------2h4h5p4p2---------------------------------------4h5h7p5p4h7-----------|
-2h3h5-----------5-------------3h5h7p5p3---------3h5h7-----------------------|
-------------------------3h5h7-----------5-3h5h7-----------------------------|
-------------------3h5h7-----------------------------------------------------|


---------------------------------------------------------------5h7h8p7p5-----|
---------------------------------5h6h8p6p5h8p5h6h8p6p5h8p5h6h8---------------|
-4h5h7p5p4h5h7p5p4h5h7p5p4h5h7/8---------------------------------------------|
-----------------------------------------------------------------------------|
-----------------------------------------------------------------------------|
-----------------------------------------------------------------------------|


------------------------------8--10h12p10p8----8h10h12p10p8----8h10h12p10p8--|
-8p5h6-----------------12-------------------12--------------12---------------|
-----------9p8p7b9-----------------------------------------------------------|
-----------------------------------------------------------------------------|
-----------------------------------------------------------------------------|
-----------------------------------------------------------------------------|


-----------------------------------------------------------------------------|
-12-8h10h12-8h10h12-8h10h12-10p8---------------------------------------------|
---------------------------------12-10h12p9h10h12p9-----------9h10h12-10-----|
----------------------------------------------------1p9h10h12----------------|
-----------------------------------------------------------------------------|
-----------------------------------------------------------------------------|


-11h12h15p12p11-15p11h12h15p12p11-15p11h12h15p12p11-15p11h12h15p12p11--------|
-----------------------------------------------------------------------------|
----------------------------------------------------------------------12-14--|
-----------------------------------------------------------------------------|
-----------------------------------------------------------------------------|
-----------------------------------------------------------------------------|


-------------------12-13-15-17|-20b22r20----17-------------------------------|
-12-13----12-13-15------------|----------------18----------------------------|
-------14---------------------|-------------------19p1714--------------------|
------------------------------|----------------------------15----------17----|
------------------------------|-------------------------------17-15-13-------|
------------------------------|----------------------------------------------|


--------------12b13r12----10----10-------------------------------------------|
-----------------------------13----10-13-------10----------13-------10-------|
-----------------------------------------12b14----13-12-10----12b14----13-12-|
-----------------------------------------------------------------------------|
-1312-13---------------------------------------------------------------------|
-----------------------------------------------------------------------------|


-----------------------------------------------------------------------------|
----13----------------^^18b22r18---------------------------------------------|
-10----12p10----14-------------------17b21r17----^^12b14r1210-10b12r107------|
-----------------------------------------------------------------------------|
-----------------------------------------------------------------------------|
-----------------------------------------------------------------------------|


------------------------------------------------------------------------------|
-----------------------------------------------^^5-6-5-3-5b6r5p3--------------|
-7b10r75--------------------------------3-5-7-------------------5----5/17-----|
----------5b9r5----5b7r5--3--------3-5-7--------------------------------------|
-----------------------------3-5-7--------------------------------------------|
------------------------------------------------------------------------------|


---10---8-----------------------10----10----10----10----10----10-13b15r13----|
------------11---10---8---10/13----11----10----11----13----11----------------|
-7----7---7----7----7---7----------------------------------------------------|
-----------------------------------------------------------------------------|
-----------------------------------------------------------------------------|
-----------------------------------------------------------------------------|


-10-12----10-------------------------20-----17-------------------------------|
-------13----10-13-----------------x------x--------17-----15------------18---|
------------------10b12r10----10/x------x--------x------x--------15---x------|
-----------------------------------------------x------x--------x----x--------|
-------------------------------------------------------------x---------------|
-----------------------------------------------------------------------------|


-----17-----15----18h20p18-17-18-17h18p17-15-17-15h17p15-13-15-13h15p13-12---|
---x------x------------------------------------------------------------------|
-x------x--------------------------------------------------------------------|
-----------------------------------------------------------------------------|
-----------------------------------------------------------------------------|
-----------------------------------------------------------------------------|


---------------------------------|-------------------------------------------|
-13------------------------------|-------------------------------------------|
----14-129-----------------------|-------------------------------------------|
------------10-----------8/10----|-9--10--13--13/14--13--10--9--7--9--10-----|
---------------12p10p87----------|-7---8--11--11/12--11---8--7--5--7---8-----|
---------------------------------|-------------------------------------------|


-10--10---8---8--------------------------------------------------------------|
-13--13--12--12--10--10--9--9------------------------------------------------|
-----------------10--10--9--9--10--10--9--9----------------------------------|
-------------------------------10--10--9--9--9--10--13--14--16--18--18/19----|
---------------------------------------------7---8--11--12--14--16--16/17----|
-----------------------------------------------------------------------------|


-----------|-------0--------0|------------------------------------------|----|
-----------|-------0--------0|------------------------------------------|----|
-----------|-------9--------9|------------------------------------------|----|
-18--16--15|-2--2--9--2--2--9|--9--10--13--14--16--18--18/19--18--16--15|----|
-16--14--13|-2--2--7--2--2--7|--7---8--11--12--14--16--16/17--16--14--13|----|
-----------|-0--0--0--0--0--0|------------------------------------------|----|


-------------------------------|--20b21r2023b24r23----20pb21r20-20pb21r20----|
-------------------------------|---------------------------------------------|
-------5------2-------5-------2|---------------------------------------------|
-----9-------5------9-------5--|---------------------------------------------|
---7-------5------7-------5----|---------------------------------------------|
-5-------3------5-------3------|---------------------------------------------|


-23pb24r23-23pb24r23-23b24----19br17-19----17--------------------------------|
----------------------------------------17----20b22----20--------------------|
-----------------------------------------------------------------------------|
-----------------------------------------------------------------------------|
-----------------------------------------------------------------------------|
-----------------------------------------------------------------------------|


--------------15-------------15----------------------------------------------|
-----17b20r17----17-16-15-17----17-16-15-------------------------------------|
---x-------------------------------------17-14-----14-14---------------------|
-x---------------------------------------------------------------------------|
-----------------------------------------------------------------------------|
-----------------------------------------------------------------------------|


------------------------------------------------------------------------------|
------------------------------------------------------------------------------|
-12/1614/1612/1614--14--17b21--------12/169/167/165---------------------------|
--------------------------------------------------------------5---------------|
---------------------------------------------------------------------3b5r3----|
------------------------------------------------------------------------------|


-^^7b8r7b8r7----5h8p5-7h8p7p5------------------------------------------------|
------------------------------8p5h6h8p6p5-------------------------------5----|
------------------------------------------7p5h7h8p7p54-5b7--^^pb7r5----------|
-----------------------------------------------------------------------------|
-----------------------------------------------------------------------------|
-----------------------------------------------------------------------------|


-----------------------------------------------------------------------------|
-----------------------------------------------------------------------------|
-^^pb9r7------pb8r7----7----5-7-pb9r7b8r7-5----------------------------------|
--------------------------------------------7b9r7----72----------------------|
------------------------------------------------------------2h3h5------------|
-----------------------------------------------------------------------------|


----------------------------------------------|------------------------------|
----------------------------------------------|------------------------------|
---------------2----------2h4h5p4----4h5h7p5p4|------------------------------|
-2h3h5p3p2h3h5------2h3h5---------------------|------------------------------|
----------------------------------------------|------------------------------|
----------------------------------------------|------------------------------|
comments
We did not receive enough feedback on this tab! Please rate:
print report bad tab
1 2 3 4 5
I want to post or [tab]
guest
You may want to rate the tab now too:
select rating
Please do not post tabs as comments. Select "correction" instead!