Oops, an error
Loading. Please wait.

Motocycle Driver Tab

1,441 views 1 this week
no commentswrite comment
1 2 3 4 5
excellent!
x 1
Autoscroll
+/-
esc
set tempo
stop
Contributor
Hey! There's an official Ultimate Guitar app which is ideal
for learning songs when you're away from computer. Get the app
WARNING: You are trying to view
                                    content from Ultimate-Guitar.com
                                    in an unauthorized application,
                                    which is prohibited.

                                    Please use an official Ultimate
                                    Guitar Tabs application for iPhone,
                                    iPad or Android to access legitimate
                                    chords, guitar, bass, and drum tabs
                                    from Ultimate-Guitar.com database.

                                    Type "ultimate guitar tabs" in Apple
                                    App Store's or Android Market's
                                    search to find the application.
----------------------------------------------------------------------------
		   MOTORCYCLE DRIVER - Joe Satriani
----------------------------------------------------------------------------
Tabbed by: zaccy
Email: big_zaccy_madden@hotmail.com

Tuning: Regular Tuning (E,A,D,G,B,e)


Intro
E|--------------------------------|---------------------------]
B|*------------------------------*|-repeat--------------------]
G|---------7-----6--0--6----------|----4----------------------]
D|-----5~~-------7--0----7--------|-------times---------------]
A|*------------------------7-----*|---------------------------]
E|-0-0-------0-0-------------0-0--|---------------------------]
 
  pull bar up
  t*t t t t t t t t t t t t t  t t t t t t t t t t t t t t t t
E-------------------------------------------------------------]
B-------------------------------------------------------------]
G-------------------------------------------------------------]
D-------------------------------------------------------------]
A-------------------------------------------------------------]
E-x-x-x-x-x-x-x-x-x-x-x-x-x-x--x-x-x-x-x-x-x-x-x-x-x-x-x-x-x-x]
*Percussive sound created by tapping with edge of pick over pickups

								    nh[-----
E|------------------------------|----------------|------------]
B|*----------------------------*|----------------|------------]
G|--------7-----6-0-6-----------|-repeat 3 times-|------------]
D|----5~~-------7-0---7---------|----------------|------------]
A|*---------------------7------*|----------------|------7---7-]
E|0-0-------0-0-----------0-0---|----------------|-0-0----4---]

 		nh[-----------------------
E------------|------------------------------------------------]
B------------|------------------------------------------------]
G----7-9-----|-----------------------18p16p14h16p14-----------]
D-9--7-9--9--|-------------16-16--------------------16p14h16--]
A-9--5-7--9--|-------17-17------------------------------------]
E-7-------7--|-17-17-------------17-17------------------------]
					   
E-------------------------------------------------------------]
B-------------------------------------------------------------]
G-------------------------------------------------------------]
D-p14----------------------14----13---11---10-----------------]
A-----16\14-12-12---------------------------------------------]
E-----------------16-14-12----11----9----8--------------------]

main theme
E-------------------------------------------------------------]
B-------------------------------------------------------------]
G-------------------------------------------------------------]
D--7--9--11b(12)rb11--9--7--9--9-----7--9-11b(12)rb11--9--7--9]
A-------------------------------------------------------------]
E-------------------------------------------------------------]

E-------------------------------------------------------------]
B-------------------------------------------------------------]
G-----------------------------------------------------7--9----]
D-----------7--9--11b(12)rb11--9--7--9/11--9~~~~-7--9------9--]
A-9h11~~~~----------------------------------------------------]
E-------------------------------------------------------------]

E----------------|--------------------------------------------]
B----------------|-10--12--14b(15)rb14--12--10--12--12~~~~--10]
G----------------|--------------------------------------------]
D-7--9/11--9~~~~-|--------------------------------------------]
A----------------|--------------------------------------------]
E----------------|--------------------------------------------]

E-------------------------------------------------------------]
B-12--14b(15)rb14--12--10--12------------10--12--14b(15)rb14--]
G-----------------------------11h13~~~~-----------------------]
D-------------------------------------------------------------]
A-------------------------------------------------------------]
E-------------------------------------------------------------]

E--------------------------------10-12------------------------]
B-12--10--12/14--12~~~~--10--12---------12--10--12/14-12~~~~--]
G-------------------------------------------------------------]
D-------------------------------------------------------------]
A-------------------------------------------------------------]
E-------------------------------------------------------------]

E-14~~~~-16-16b(17)rb16p14------------14-16-16b(17)rb16p14----]
B--------------------------17~~~~--17----------------------17-]
G-------------------------------------------------------------]
D-------------------------------------------------------------]
A-------------------------------------------------------------]
E-------------------------------------------------------------]

E-------------------------------------------------------------]
B-17b(19)~~~~---------------------------------15b(17)rb15p14--]
G---------------11~~~~--13-14-14/16-14-13~~~~-----------------]
D-------------------------------------------------------------]
A-------------------------------------------------------------]
E-------------------------------------------------------------]

E-------------------------------------------------------------]
B----14h15p14-----------------------------------14-14b(15)rb14]
G-16----------16-14-13b(14)rb13---------14b(16)---------------]
D-------------------------------16~~~~------------------------]
A-------------------------------------------------------------]
E-------------------------------------------------------------]

E-----------------------------------------------14------------]
B-12------------12-14-14b(15)rb14p12--------------------------]
G----14~~~~--14----------------------14-14b(16)----14b(16)~~~~]
D-------------------------------------------------------------]
A-------------------------------------------------------------]
E-------------------------------------------------------------]

E-------------------12~~-14-17~~~~-17-----19-21-21b(22)rb21p19]
B-------------14-15--------------------22---------------------]
G-14b(16)~~~~-------------------------------------------------]
D-------------------------------------------------------------]
A-------------------------------------------------------------]
E-------------------------------------------------------------]

E----19~~-22-19~~-22-19~~~~-19-19-19-19-19~~~~~~~~~~----------]
B-22----------------------------------------------------------]
G-------------------------------------------------------------]
D-------------------------------------------------------------]
A-------------------------------------------------------------]
E-------------------------------------------------------------]

E-------------------------------------------------------------]
B-------------------------------------------------------------]
G-------------------------------------------------------------]
D-5b(6)--7--8--9~~\---7p5--7-5-7-x-7-5------------------------]
A--------------------------------------7-7--5p4p3-------------]
E-------------------------------------------------------------]
|							      |
|							      |
|							      |
|							      |
E|----------------|-------------------------------------------]
B|*--------------*|-------------------------------------------]
G|12-----11-8--9--|------2%-----------------------------------]
D|-9-----10-7--5--|------%2-----------------------------------]
A|*--------------*|-------------------------------------------]
E|----------------|-------------------------------------------]

E-------------------------------------------------------------]
B-------------------------------------------------------------]
G---------------------------------------------7---9~~-9~~-----]
D-5h6--7----8----9~~~~\---5b(6)--5-0-7-5-7/9----9-------------]
A-------------------------------------------------------------]
E-------------------------------------------------------------]
|							      |
|							      |
|							      |
|							      |
E-------------------------------------------------------------]
B-------------------------------------------------------------]
G-12---11---8-------9-----12-----11--------8--------9\--------]
D--9---10---7-------5------9-----10--------7--------5\--------]
A-------------------------------------------------------------]
E-------------------------------------------------------------]

 Guitar Solo
  Bm		  Aadd9        G7M
E---------------7---------------10-----------9---7------------]
B-----------------10-------------------------------7-10-------]
G-9b(11)~~~~---------9b(11)~~~~----9b(11)rb9---7--------9b(11)]
D-------------------------------------------------------------]
A-------------------------------------------------------------]
E-------------------------------------------------------------]

    Aadd9      Bm					    Aadd9
E-------------------------------------------------------------]
B-------------------------------------------------------------]
G-rb9p7----7/9\7\6-7--6h7p6\6h7/11~~~~--9h11p9\7h9p7\6h7p6\4h6]
D--------9----------------------------------------------------]
A-------------------------------------------------------------]
E-------------------------------------------------------------]

    G7M					     Aadd9		Bm
E-------------------------------------------------------------]
B-------------------------------------------------------------]
G-p4\2--2/4--4\2--4p2p0---0-----------------------------------]
D-----------------------4---4p2p0-----------------------------]
A---------------------------------4--5--4--2----2--2~~~~------]
E--------------------------------------------5----------------]

E-------------------------------------------------------------]
B-------------------------------------------------------------]
G---------------------6h7h9p7p6/7h9h11p7\6h7--9p7p6/7h9h11----]
D-------4h5h7p5-5/7-9-----------------------------------------]
A-4h5h7-------------------------------------------------------]
E-------------------------------------------------------------]

						          T
       Aadd9                     G7M
E-------------------------------------------------------------]
B--7h8h10p8p7/--14h15h17p15p14/15h17h19p17p15-24p0h19p17p15h17]
G-------------------------------------------------------------]
D-------------------------------------------------------------]
A-------------------------------------------------------------]
E-------------------------------------------------------------]

		T	T	   T			    T
                                    
E-------------------------------------------------------------]
B-h19p17p15-24p17-24p17p15-22p17h19p17p15h17--22p19p177p15----]
G-------------------------------------------------------------]
D-------------------------------------------------------------]
A-------------------------------------------------------------]
E-------------------------------------------------------------]

  T		  T			T		  T			T
                                 Aadd9				Bm
E-------------------------------------------------------------]
B-20p19p17p15-20p17h19p17p15-20p17h19p17p15-20p17h19p17p15--20]
G-------------------------------------------------------------]
D-------------------------------------------------------------]
A-------------------------------------------------------------]
E-------------------------------------------------------------]

						   		 Aadd9
                                     
E-----------------------12-14-17-12h14--10-12-10-------10-12--]
B-\19\3p0-5/12p0--12-15--------------------------10h12--------]
G-------------------------------------------------------------]
D-------------------------------------------------------------]
A-------------------------------------------------------------]
E-------------------------------------------------------------]
						   
             G7M                     
E-12b(14)-10-12-----------------------------------------------]
B---------------10-12------10-12------------------------------]
G---------------------9-11-------9-11----9-11-----9--12-------]
D-------------------------------------12------12-9-----12-----]
A--------------------------------------------------------12p9-]
E-------------------------------------------------------------]
						   
                    w/bar   AH       			   AH
E------------------|------------------------------------------]
B------------------|-------------------------------------0----]
G------------------|----------------------------------0-------]
D-9----------------|--------------------------0--0--0---------]
A---9h12-12----9-9-|----------------0---0---0-----------------]
E-----------10-----|--0-----0---0-----------------------------]


E-7-7--------7--7--------7------------------------7-7--------7]
B-7-7--------7--7--------7-------10-------7-------7-7--------7]
G-----9b(11)------9b(11)---9b(11)---9b(11)--9b(11)----9b(11)--]
D-------------------------------------------------------------]
A-------------------------------------------------------------]
E-------------------------------------------------------------]

						          tr       tr
                                     		T        T
E-7-------7--------7-7--------7--------7---17-(19)--16-(19)---]
B-7-------7--------7-7--------7--------7----------------------]
G---9b(11)--9b(11)-----9b(11)---9b(11)------------------------]
D-------------------------------------------------------------]
A-------------------------------------------------------------]
E-------------------------------------------------------------]

	tr	   
        T                            
E--14-(19)-|-----------------|----7-------7--------7-------7-7]
B----------|-----------------|-10-7-------7--------7-------7-7]
G----------|-play main theme-|-9----9b(11)---9b(11)--9b(11)---]
D----------|-----------------|--------------------------------]
A----------|-----------------|--------------------------------]
E----------|-----------------|--------------------------------]

E--------7-7---7-7--------------------------------------------]
B--------7-7---7-7--9b(10)rb9---9b(10)----7--7----7--9--7~~~~-]
G-9b(11)-----9------9b(10)rb9-7-9b(11)p0--7--7----7--9--7~~~~-]
D-----------------------------------------------9-------------]
A-------------------------------------------------------------]
E-------------------------------------------------------------]
                                  
E-------------------------------------------------------------]
B---7--9-7--7--7--10b(11)--19-----19-----19-----19----19----19]
G---7--9-7--7--7-----------19-----19-----19-----19----19----19]
D-9----------------------------21-----21----21-----21----21---]
A-------------------------------------------------------------]
E-------------------------------------------------------------]
						   
                                     		gradually bend
E-------------------------------------------------------------]
B----19-19----19-19-19-19-19----19-19----19-19-0-22b(24)------]
G----19-19----19-19-19-19-19----19-19----19-19----------------]
D-21-------21----------------21-------21----------------------]
A-------------------------------------------------------------]
E-------------------------------------------------------------]

E------------------------22--22------------19-19--22------19--]
B-22b(24)--22b(24)~~-----21--21b(22)-19-22-19-19--21b(22)-19--]
G-22b(23)--22b(23)~~-0------------------22--------------------]
D-------------------------------------------------------------]
A-------------------------------------------------------------]
E-------------------------------------------------------------]

E-22-22--19----19--22b(24)rb22-19-----------------------------]
B-21-21--19-19-19-----------------22b(24)rb22-19---------22---]
G-----------19-----------------------------------21b(23)------]
D-------------------------------------------------------------]
A-------------------------------------------------------------]
E-------------------------------------------------------------]
						   
E---------------------9h10p9-7----7-9----9p7----7-9----7-9p7--]
B------------------------------10-----10-----10-----10--------]
G-21b(23)~~~~-7/14-0------------------------------------------]
D-------------------------------------------------------------]
A-------------------------------------------------------------]
E-------------------------------------------------------------]

E----7-9h10p9-7---7-9h10p9-7----7-9-10p9-7--------------------]
B-10-----------10------------10------------10-7-9-10p9p7---9--]
G--------------------------------------------------------9----]
D-------------------------------------------------------------]
A-------------------------------------------------------------]
E-------------------------------------------------------------]
                                     				AH
E-------------------------------------------------------------]
B-9p7---7-------------------------------------7---9-7---------]
G-----9---9b(10)rb9p7-10-9p7\6h9-9p7p6-7~~~~--7---9-7-------7-]
D-----------------------------------------------9-----9~~~~---]
A-------------------------------------------------------------]
E-------------------------------------------------------------]

E-------------------------------------------------------------]
B---9-7-------------------------------------------------------]
G---9-7--------7---9-7----------------------------------------]
D-9-----9~~~~----9-----7--------------------------------------]
A------------------------0-7-------------------------/14\17---]
E----------------------------10b(12)rb10-10b(12)~~~~----------]
                        nh           
E------------------------------0-0-0-0-0-0----0-0-----12----10]
B---------------------------5--7-7---9-9-9/10---10/12-12-12-12]
G-------------6---7---9---------------------------------------]
D-6---7---9---------------------------------------------------]
A---7---7---7---7---7---7-------------------------------------]
E-------------------------------------------------------------]
				                                        
E-10-10------10-10---------10-10---------14b(17)--14-13-12----]
B-10-12------------12~~~~--------12~~~~--------------------15-]
G---------0---------------------------------------------------]
D-------0-----------------------------------------------------]
A-------------------------------------------------------------]
E-------------------------------------------------------------]
                                     
E-------------------------------------------------------------]
B-12----12---------12-----------------------------------------]
G----13----13b(14)------------------------14b(16)~~~~---------]
D---------------------14-12~~~~--12----12-------------12----12]
A-----------------------------------14-------------------14---]
E-------------------------------------------------------------]
                                   
E----------------------------7-7--------------------0-0-0-0---]
B------------------------5/9-7-7-9b(10)-7-9-------3---3-3-3---]
G-------14b(16)~~~~-14/--5/9-----9b(10)-7-9-0-2\1-----------3-]
D----12-------------------------------------------------------]
A-14----------------------------------------------------------]
E-------------------------------------------------------------]
	                                      
E------------------------------------------------0-0---0---0-0]
B-7----9-7---------------------------------------0-0-0--------]
G-7----9-7----------------------2------------------------1----]
D----7-----9----------------------------0---0-----------------]
A----0-------7\5-7-5-------3-0----0-2/4---5-------------------]
E--------------------7--7/--------------------0---------------]
						   
                                 		  AH
E---2-2-2/4--4-----5------7-7/9--9-------10----10----10-10~~~~]
B-------------------------------------------------------------]
G-2---2-2/4--4-4/6---6/7----7/9----9/11-----11----11----------]
D-------------------------------------------------------------]
A-------------------------------------------------------------]
E-------------------------------------------------------------]
                                     
E-x---------------7--------------7----------------------------]
B--x-----10b(12)----7-10p7---------10p7-----------------------]
G---x----------------------9b(11)-------9b(11)p7--------------]
D----x-------------------------------------------9p7---------7]
A-----0----------------------------------------------9\7-5----]
E------0---------------------------------------------------5--]
						  
                  pull bar up        
E-------------------------------------------------------------]
B-------------------------------------------------------------]
G-----------------------------9-------------------------------]
D-----------------------------9-------------------------------]
A-7\6b(7)rb6--------------------------------------------------]
E------------7\4/7--------------------------------------------]

Enjoi!

| /  slide up
| \  slide down
| h  hammer-on
| p  pull-off
| b  bend
|pb  pre-bend
| t  tap picking
| ~  vibrato
| +  harmonic
| x  Mute note
============================================================================
comments
We did not receive enough feedback on this tab! Please rate:
print report bad tab
1 2 3 4 5
I want to post or [tab]
guest
You may want to rate the tab now too:
select rating
Please do not post tabs as comments. Select "correction" instead!