Oops, an error
Loading. Please wait.

Musterion Tab

3,757 views 3 this week
no commentswrite comment
1 2 3 4 5
worth learning
x 2
add to favorites launch autoscroll
font size
0
reset
Autoscroll
+/-
esc
set tempo
stop
Contributor
Difficulty
advanced
WARNING: You are trying to view
                                    content from Ultimate-Guitar.com
                                    in an unauthorized application,
                                    which is prohibited.

                                    Please use an official Ultimate
                                    Guitar Tabs application for iPhone,
                                    iPad or Android to access legitimate
                                    chords, guitar, bass, and drum tabs
                                    from Ultimate-Guitar.com database.

                                    Type "ultimate guitar tabs" in Apple
                                    App Store's or Android Market's
                                    search to find the application.
This tab is a bit hard to follow, I've made it as easy as possible to read, but 
please take a good look at the tab legends before working through this.



     W                   W                 
E||--2----------------|-------------------|
B||--0----------------|--4----------------| Repeat 8 times
G||-------------------|--5----------------|
D||-------------------|-------------------|
A||--3----------------|--3----------------|
E||-------------------|-------------------|



 
                                        \1/ \1/ \1/  
                          Q    E  E  E  E   E   E    
-------|-------|-------|----------------------------|
-------|-------|-------|----------------------------|
-------|-------|-------|----------9--8--L---L---L---|
-------|-------|-------|----------------------------|
-------|-------|-------|----------------------------|
-------|-------|-------|----------------------------|


  Q     E   E  Q.       E     Q    E   E  E  E  E   E   
---------------------------|---------------------------|
---------------------------|---------------------------|
--L~-----------7~----------|---------------------------|
-----------10----------10--|--------------9-----9--10--|
---------------------------|----------10---------------|
---------------------------|---------------------------|


                   w/ bar    
  E.     S E   E   H         
----------------------------|
----------------------------|
----------------------------|
----------------------------|
--6---6g10-L--10~--L--------|
----------------------------|


                 \1/ \1/ \1/ \1/  
  Q    E   E  E  E   S   S   E    
---------------------------------|
---------------------------------|
--------------8--L---L---L---L---|
----------10---------------------|
---------------------------------|
---------------------------------|


  Q     E   E  Q.       E   
---------------------------|
---------------------------|
--L~-----------7~----------|
-----------10----------10--|
---------------------------|
---------------------------|


          PM  PM              
  Q    E  S   S E  E  E   E   
-----------------------------|
-----------------------------|
-----------------------------|
----------------9-----9------|
----------9--10----------10--|
-----------------------------|


                    \1/ \1/ \1/     
  E   E  E   E  E.  S   S   E   S   
-----------------------------------|
-----------------------------------|
-----------------------------------|
--9--10-----10--L---L---L---L---L~-|
-----------------------------------|
-----------------------------------|


  E  E  E   E   Q      Q      
-----------------------------|
-----------------------------|
---------------11b----11b----|
--L--------10----------------|
-----------------------------|
-----------------------------|


  w/ bar                          
  Q      E   E   E    E   E.   S  
---------------------------------|
---------------------------------|
--L~------------11br--L~--Lh---8-|
------------10-------------------|
---------------------------------|
---------------------------------|


  H         E   E   E    E   
----------------------------|
----------------9-----------|
-----------11b-----11b--11--|
----------------------------|
----------------------------|
----------------------------|


                \1/ \1/ \1/ \1/       
  Q     Q     S S   S   S   S    E.   
-------------------------------------|
-------------------------------------|
--8----11b----L-L---L---L---L----L---|
-------------------------------------|
-------------------------------------|
-------------------------------------|


                \1/ \1/ \1/  
  Q    E  E  E  E   E   E    
----------------------------|
----------------------------|
----------9--8--L---L---L---|
----------------------------|
----------------------------|
----------------------------|


  Q     E   E  Q.       E   
---------------------------|
---------------------------|
--L~-------10--7~----------|
-----------------------10--|
---------------------------|
---------------------------|


  Q    E    E  E  E  E   E   
----------------------------|
----------------------------|
----------------------------|
---------------9-----9------|
----------/10-----------10--|
----------------------------|


                   \1/ \1/      
  E   E  E   E  E  E   E   E    
-------------------------------|
-------------------------------|
-------------------------------|
--9--10-----10--L--L---L---L~--|
-------------------------------|
-------------------------------|


                          |---3---|   
  E.  S  E      E   Q     E   E   E   
-------------------------------------|
-------------------------------------|
-------------------------------------|
--L---L\----10g12--12~----L--10--12--|
-------------------------------------|
-------------------------------------|


                    w/ bar     
      Q    E    E   H          
------------------------------|
------------------------------|
------------------------------|
--12g13----Ls--10--10~--------|
------------------------------|
------------------------------|


                         |---3---|   
  E  E  E      E   Q     E   E   E   
------------------------------------|
------------------------------------|
------------------------------------|
--L--------10g12--12~----L--10--12--|
------------------------------------|
------------------------------------|


               -/1               
      Q.       E  E   Q      E   
--------------------------------|
--------------------------------|
--------------12--L--17br----L--|
--12g13~------------------------|
--------------------------------|
--------------------------------|


                      \1/              
                          |----3---|   
   Q     E.      S E  E   E    E   E   
--------------------------------------|
--------------------------------------|
--15~---------------------------------|
-------------10g12-L--L---L~--10--12--|
--------------------------------------|
--------------------------------------|


      Q    E    E   H          
------------------------------|
------------------------------|
------------------------------|
--12g13----Ls--10--10~--------|
------------------------------|
------------------------------|


    Q    E.    S Q    E.    S    H.            E    E   
------------------------------|------------------------|
------------------------------|------------------------|
------------------------------|------------------------|
--/17----Lbr---L-L----Lbr---L-|--L~--------------------|
------------------------------|-------------------/10--|
------------------------------|------------------------|


  H         Q.      E     S  E.   Q    Q.      E   
-----------------------|--------------------------|
-----------------------|--------------------------|
-----------------------|--------------------------|
--9~--------L------10--|--L-10~---L----L----------|
-----------------------|----------------------10--|
-----------------------|--------------------------|


  H.            E   E     E  Q.      Q.      E   
-----------------------|------------------------|
-----------------------|------------------------|
-----------------------|------------------------|
--9~------------Ls--5--|--L--5~------L----------|
-----------------------|--------------------10--|
-----------------------|------------------------|


  H         Q.      E     S  E.   Q    Q.       E   
-----------------------|---------------------------|
-----------------------|---------------------------|
-----------------------|---------------------------|
--9~--------L------10--|--L-10~---L----L-----------|
-----------------------|----------------------/10--|
-----------------------|---------------------------|


                             \1/                
  H.            E   E     E  E   H.             
-----------------------|-----------------------|
-----------------------|-----------------------|
-----------------------|-----------------------|
--9~------------Ls--5--|--L--L---L~------------|
-----------------------|-----------------------|
-----------------------|-----------------------|


     PM PM PM PM PM PM PM PM PM PM PM PM PM PM  
  E  S  S  S  S  S  S  S  S  S  S  S  S  S  S   
-----------------------------------------------|
-----------------------------------------------|
-----------------------------------------------|
-----8--8--8--8--8--8--8--8--8--8--6--8--8--8--|
-----------------------------------------------|
-----------------------------------------------|


  PM PM             PM PM PM PM            
  E  E    S   S S S S  S  S  S    S S E    
------------------------------------------|
------------------------------------------|
--------------------6-----------<>6---6~--|
--8--8--<>7-<>7-8-8----8--8--8------8-----|
------------------------------------------|
------------------------------------------|


                PM PM      PM              
  E  E    S   S S  S  S  S S  S S  S S  S  
------------------------------------------|
------------------------------------------|
--L----------------------------------6h-8-|
-----8--<>7-<>7-8--8--6h-8-8--8-6h-8------|
------------------------------------------|
------------------------------------------|


  S S  S S S S S S S S S  S S  S S  S  
--------------------------------------|
--6-----------------------------------|
----8p-6---8-8-6----------------------|
---------8-------8-6------------------|
---------------------8-6s-4-6p-4-6p-4-|
--------------------------------------|


    Q      E    E   Q    Q     
------------------------------|
------------------------------|
------------------------------|
------------------------------|
--6g8-------------------------|
---------<>6--<>6~--L---------|


    E.  S  E  E   Q    S S S  S  
--6g8---6h-8--6~--L-------------|
-----------------------9-6----6-|
---------------------------8b---|
--------------------------------|
--------------------------------|
--------------------------------|


                  |--3-|                 
  S S  S S  E  E  S S  S S   S  S S S S  
--6---------------6---------------------|
----9p-6------------9p-6----------------|
---------8b-L------------8br-Lh-6---8---|
----------------------------------8---8-|
----------------------------------------|
----------------------------------------|


  S S  S S S E.   Q     E     E   
----------------------------5g7--|
---------------------------------|
--6------------------------------|
----8p-6---6-8~---6~----6\-------|
---------8-----------------------|
---------------------------------|


                                 |--6--| |--6--|   
  E  T T T  T  E  E  S  T  T S S S  S  S S  S  S   
--L--5--------------------------------------------|
-------7------------------------------------------|
---------7p-5s-4--5--4h-5p-4---4------------------|
-----------------------------7---7p-5p-3----------|
-----------------------------------------7p-5p-3s-|
--------------------------------------------------|


        |----5----|                         |-----7-----
  E  E  S S  S  S S  T  T  T  T  T  T  T T  S  S  S  S  
--------------------------------------------------------
--------------------------------------------------------
-----------------------------------------4h-5h-7p-5p-4s-
------------------2h-3h-5p-3p-2s-3h-5h-7----------------
--2-------2h-3h-5---------------------------------------
--------5-----------------------------------------------


  T  T  T  T  T  T  T   T T  T   T  T  T  T   T   T E   
--------------------------7h-8h-10p-8p-7s-8h-10h-12----1
--5h-6h-8p-6p-5s-6h-8h-10-------------------------------
--------------------------------------------------------
--------------------------------------------------------
--------------------------------------------------------
--------------------------------------------------------


  E   Q    S  S S  S  S   S S  S  S  S  
-----12----8----8-12-11p-10-8-10p-8s-7-|
-------------12------------------------|
---------------------------------------|
---------------------------------------|
---------------------------------------|
---------------------------------------|


  S S  S  S  S  S  S  S  S S  S  S  S S  S S  
--8-7----------------------------------------|
------10p-8p-6-------------------------------|
---------------10p-9p-7----9p-7------------9-|
------------------------10------10p-9-7-10---|
---------------------------------------------|
---------------------------------------------|


                    |---3--|                 
  S  S S  S   S  S  S  S   S E   Q      E    
-------8-12s-17-12--------------------------|
----12-------------13-----------13b----13~--|
--L-------------------14p-12-L--------------|
--------------------------------------------|
--------------------------------------------|
--------------------------------------------|


  E   S   S  S   S  S  S  S  S S  S S  S   S S  
---------------------------------------------5-|
--L--12p-10-12p-10----10-------8p-5--------5---|
-------------------12----12s-9------7b-7pb-----|
-----------------------------------------------|
-----------------------------------------------|
-----------------------------------------------|


  |--3--|     |--3-|                       
  S  S  S E   S S  S S   S S S S S S E.    
--------------5---------------------------|
--5h-8p-5-------8p-5----------------------|
----------7b---------7br-L-5---7---5------|
-----------------------------7---7---7~---|
------------------------------------------|
------------------------------------------|


  |-3-|       |-3-|       |--3--|                
  X X X S. E  X X X S. E  S  S  S S S S S  S S   
--------4-----------6--L--4h-6p-4---4-----------|
------x-----------x---------------7---4-7p-4----|
----x-----------x----------------------------6h-|
--x-----------x---------------------------------|
------------------------------------------------|
------------------------------------------------|


  S S  S S  S  S E    E.   S E    E   
-------------------------------------|
-------------------------------------|
--4----------------------------------|
----6p-4-----------------------------|
---------6p-4s-2-4--4g6s---9-Ls--11--|
-------------------------------------|


   Q     S   S  S  S  S   S  S  S  S   S  S  S  
-----------------------------------------------|
-----------------------------------------------|
--------13s-16-16----16s-15-15----15s-18-18----|
-----------------------------------------------|
--11--------------14--Ls-13----13--Ls-16----16-|
-----------------------------------------------|


   S   S  S  S  S   S  S  S  S  S  S  S  S  S  S  S  
----------------------------------------------------|
----------------------------------------21-21-21-21-|
--16s-18-18-18-16s-18-18-18-18-18-18-18-------------|
---x------x--x--x------x--x--x--x--x--x-------------|
--14s-16-16-16-14s-16-16-16-16-16-16-16-------------|
----------------------------------------------------|


   S  S  S  S  S  S  E    E   S  S S  E.    
------------------------/16--16------19b---|
--21-21-21-21-21-21-21--/16--16-16-L-------|
--18-18-18-18-18-18--x----------16-L-------|
---x--x--x--x--x--x-18---------------------|
--16-16-16-16-16-16--x---------------------|
--------------------16---------------------|


  E   E   S  E    S  E   S  S   S  S   S  S   
--L--19b--L-19b--19~-L--16---------------19h-|
---------------------------19p-16------------|
----------------------------------18p-16-----|
---------------------------------------------|
---------------------------------------------|
---------------------------------------------|


   S  S   S  S   S  S  S  S  S  S  S  S  S   S  S   S   
--16---------------------------------------------------|
-----19p-16--------------------------------------------|
------------18p-16----18----16-------------------------|
-------------------18----18----18-16-------------------|
-------------------------------------18-16s-14-16p-14s-|
-------------------------------------------------------|


                                        w/ Wah          
   S  S   S   S  S   S   S  S  E     E  S      S  S   S 
--------------------------------------------------------
--------------------------------------------------------
----------------------------------------0------0-14h-15-
--------------------------------------------------------
--13-14p-13s-11-11s-13s-11-13~-L--11g9------------------
--------------------------------------------------------


   S  S  S   S  S   S  S   S  S S  S   S  S  S  S   S  
------------------------------------------------------|
------------------------------------------------------|
--14p-0-14h-15-14h-15-14h-15-14---14h-15-14p-0-14h-15-|
------------------------------------------------------|
------------------------------------------------------|
------------------------------------------------------|


                                            -/1 
   S  S  S   S  S  S  S   S  S  S  S  S E   E   
-------------------------------------------15--|
-----------------------------------------------|
--14p-0-14h-15-14p-0-14h-15-14p-0-15-15-0------|
-----------------------------------------------|
-----------------------------------------------|
-----------------------------------------------|


               |------3-----|     
  E    Q.      Q     Q      Q     
--Lh--13~------L-----------------|
--------------------15b----15----|
---------------------------------|
---------------------------------|
---------------------------------|
---------------------------------|


                 \1/                 
   Q      Q      E    E    E   E     
------------------------------------|
--13~-------------------------------|
---------14br----L---12s--10--12br--|
------------------------------------|
------------------------------------|
------------------------------------|


                  \1/ \1/          
  Q    E   S  S S S   E   E    E   
------------------------------10--|
----------------------------------|
--L----L--10----------------------|
-------------12-L-L---L---L\------|
----------------------------------|
----------------------------------|


  |--6--|  |--6--| |--6-|  |--6-|  |----7----|  7  7  --
  S  S  S  S  S  S S S  S  S S  S  S S S  S  S  S  S  S 
--Lh-8p-6s-5s-6h-8-L-6p-5h-6-5h-6p-5-5------------------
---------------------------------------8p-6p-4s-3h-4h-6p
--------------------------------------------------------
--------------------------------------------------------
--------------------------------------------------------
--------------------------------------------------------


                          |-----7-----|  7  7      |--3-
  T  T  T  T  T  T  T  T  S  S  S  S  S  S  S S S  S  S 
--------------------------------------------------------
--------------------------------------------------------
--3h-5p-3p-2s-3h-5h-7p-5p-3h-7p-3h-5h-7p-5p-3-----------
----------------------------------------------7-3h-5h-7p
--------------------------------------------------------
--------------------------------------------------------


                                   \2/      
     |--3--| |--6-| |--6--|                 
  E  S  S  S S S  S S  S  S E   E  E   S S  
-------------------------------------------|
-------------------------------------------|
-------------------------------------------|
--7----------3-----------------------------|
-----3h-5h-6---6p-5-3h-5h-6-5s--3----------|
-----------------------------------1---L-L-|


  \1/ \1/  \1/ \1/ \1/ \1/ \1/  
  E   Q    E   E   E   E   E    
-------------------------------|
-------------------------------|
--4---5----L---L---L---L---L---|
--x---x------------------------|
--2---3----L---L---L---L---L---|
-------------------------------|


  \1/ \1/ \1/      \1/                              
  E   E   S   E    S Q.     E     W                 
-------------------------------|-------------------|
-------------------------------|-------------------|
--L---L---L---L----------------|-------------------|
-------------------------------|-------------------|
--L---L---L---L----------------|-------------------|
-----------------<>0-L------L--|--L----------------|


                      -/2       \1/    \1/ \1/    
  W                   Q    Q    E   S  S   Q      
-------------------|-----------------------------|
-------------------|-----------------------------|
-------------------|-----------------------------|
-------------------|-----------------------------|
-------------------|-----------------------------|
--L----------------|--2---------xs--x--xs--xs----|


                   \1/       \2/    \2/        \1/     
   Q    Q    Q     Q         Q      Q      E   Q.      
-------------------------|----------------------------|
-------------------------|----------------------------|
-------------------------|--------------------19------|
-------------------------|----------------------------|
-------------------------|----------------------------|
---x---------------xs----|---xs-----xs-----x----------|


  \1/  \1/                                \1/ \1/ \1/  
  Q    Q    Q    Q        Q     E   E  E  E   E   E    
-----------------------|------------------------------|
-----------------------|------------------------------|
--L----L----L----------|---------------8--L---L---L---|
-----------------x/----|--x/--------------------------|
-----------------x/----|--x/-------10-----------------|
-----------------x/----|--x/--------------------------|


                          SH  
  Q     E   E  Q.         E   
-----------------------------|
-----------------------------|
--L~-----------8~------------|
-----------10----------<>10--|
-----------------------------|
-----------------------------|


  Q    E   E  E  E  E   E   
---------------------------|
---------------------------|
---------------------------|
--------------9-----9------|
----------10-----------10--|
---------------------------|


                     \1/ \1/ \1/ \1/  
  E   E  E   E  Q    S   S   S   S    
-------------------------------------|
-------------------------------------|
-------------------------------------|
--9--10-----10--L----L---L---L---L---|
-------------------------------------|
-------------------------------------|


  \1/ \1/ \1/             \1/ \1/ \1/ \1/  
  S   S   E   E   E  Q    S   S   S   S    
------------------------------------------|
------------------------------------------|
---------------------8----L---L---L---L---|
--L---L---L------10-----------------------|
------------------------------------------|
------------------------------------------|


  Q     E   E  Q     E    E   
-----------------------------|
-----------------------------|
--L~-----------7~----7~------|
-----------10------------10--|
-----------------------------|
-----------------------------|


  Q    E    E  E   E  E  E   
----------------------------|
----------------------------|
----------------------------|
---------------9--10--------|
----------/10---------6--8--|
----------------------------|


  E   E  E  E    Q    E.  S   
-----------------------------|
-----------------------------|
-----------------------------|
-----------------------------|
--8b--6----------------------|
---------8--6b~--L----L---L/-|


  Q    E   E   Q      Q      
----------------------------|
----------------------------|
--------------11b----11b----|
----------10----------------|
----------------------------|
----------------------------|


  Q.      E   E   E   E   E   
-----------------------------|
-----------------------------|
--L~---------11b--8--11b--8--|
-----------------------------|
-----------------------------|
-----------------------------|


  Q     Q     E   E   E    E   
------------------------------|
------------------9-----------|
--L~---------11b-----11b--11--|
------------------------------|
------------------------------|
------------------------------|


        \1/             \1/  
  Q     Q     Q     E.  S    
----------------------------|
----------------------------|
--8----11b----L~----L---L---|
----------------------------|
----------------------------|
----------------------------|


                     \1/ \1/ \1/ \1/  
  E  E  E    E  Q    S   S   S   S    
-------------------------------------|
-------------------------------------|
--L-------------8----L---L---L---L---|
-----------/10-----------------------|
-------------------------------------|
-------------------------------------|


  \1/                SH    SH       
  E   E  E  E   E    E     E    E   
-----------------------------------|
-----------------------------------|
--L---------7~--L--<>7~--<>7~------|
-------------------------------10--|
-----------------------------------|
-----------------------------------|


  Q    E    E  E   E  E  E     E   Q     E  Q    Q      
----------------------------|--------------------------|
----------------------------|--------------------------|
----------------------------|--------------------------|
---------------9------9-----|--9--10----10--L----L~----|
----------/10-----10--------|--------------------------|
----------------------------|--------------------------|


                          |---3---|   
  E.  S  E      E   Q     E   E   E   
-------------------------------------|
-------------------------------------|
-------------------------------------|
--L---L\----10g12--12~----L--10--12--|
-------------------------------------|
-------------------------------------|


                    w/ bar     
      Q    E    E   H          
------------------------------|
------------------------------|
------------------------------|
--12g13----Ls--10--10~--------|
------------------------------|
------------------------------|


                         |---3---|   
  E  E  E      E   Q     E   E   E   
------------------------------------|
------------------------------------|
------------------------------------|
--L--------10g12--12~----L--10--12--|
------------------------------------|
------------------------------------|


               -/1               
      Q.       E  E   Q      E   
--------------------------------|
--------------------------------|
--------------12--L--17br----L--|
--12g13~------------------------|
--------------------------------|
--------------------------------|


                      \1/              
                          |----3---|   
   Q     E.      S E  E   E    E   E   
--------------------------------------|
--------------------------------------|
--15~---------------------------------|
-------------10g12-L--L---L~--10--12--|
--------------------------------------|
--------------------------------------|


      Q    E    E   H          
------------------------------|
------------------------------|
------------------------------|
--12g13----Ls--10--10~--------|
------------------------------|
------------------------------|


    Q    E.    S Q    E.    S    H.            E    E   
------------------------------|------------------------|
------------------------------|------------------------|
------------------------------|------------------------|
--/17----Lbr---L-L----Lbr---L-|--L~--------------------|
------------------------------|-------------------/10--|
------------------------------|------------------------|


  H         Q.      E     S  E.   Q    Q.      E   
-----------------------|--------------------------|
-----------------------|--------------------------|
-----------------------|--------------------------|
--9~--------L------10--|--L-10~---L----L----------|
-----------------------|----------------------10--|
-----------------------|--------------------------|


  H.            E   E     E  Q.      Q.      E   
-----------------------|------------------------|
-----------------------|------------------------|
-----------------------|------------------------|
--9~------------Ls--5--|--L--5~------L----------|
-----------------------|--------------------10--|
-----------------------|------------------------|


  H         Q.      E     S  E.   Q    Q.       E   
-----------------------|---------------------------|
-----------------------|---------------------------|
-----------------------|---------------------------|
--9~--------L------10--|--L-10~---L----L-----------|
-----------------------|----------------------/10--|
-----------------------|---------------------------|


                             \1/                  
  H.            E   E     E  E   H          Q     
-----------------------|-------------------------|
-----------------------|-------------------------|
-----------------------|-------------------------|
--9~------------Ls--5--|--L--L---L~--------17----|
-----------------------|-------------------------|
-----------------------|-------------------------|


   H         Q.      E     S  E.   Q    Q.      E   
------------------------|--------------------------|
------------------------|--------------------------|
--16~--------L------17--|--L-17~---L----L----------|
------------------------|----------------------17--|
------------------------|--------------------------|
------------------------|--------------------------|


   H.            E    E     E   Q.      Q.      E   
-------------------------|-------------------------|
-------------------------|-------------------------|
--16~------------Ls--12--|--L--12~------L----------|
-------------------------|---------------------17--|
-------------------------|-------------------------|
-------------------------|-------------------------|


   H         Q.      E    
-------------------------|
-------------------------|
--16~--------L------19b--|
-------------------------|
-------------------------|
-------------------------|


  S  E.     Q    E  E   E    E   
--------------------------------|
--------------------------------|
--L-19pb~---L----L--L\----------|
---------------------------/17--|
--------------------------------|
--------------------------------|


                               \1/                
   H.            E    E     E  E   H.             
-------------------------|-----------------------|
-------------------------|-----------------------|
--16~------------Ls--12--|--L--L---L~------------|
-------------------------|-----------------------|
-------------------------|-----------------------|
-------------------------|-----------------------|


  \1/                                      
  W                   Q    Q    Q    Q     
-------------------|----------------------|
-------------------|----------------------|
--L----------------|--L-------------------|
-------------------|----------------------|
-------------------|----------------------|
-------------------|----------------------|


                  \1/       \1/    \1/    \1/           
  Q    Q    Q     Q         Q      Q      Q      Q      
------------------------|------------------------------|
------------------------|------------------------------|
------------------------|------------------------------|
------------------------|------------------------------|
------------------------|------------------------------|
------------------xs----|---xs-----xs-----xs-----xs----|


   \1/    \1/    \1/           
   Q      Q      Q      Q      
------------------------------|
------------------------------|
------------------------------|
------------------------------|
------------------------------|
---xs-----xs-----xs-----xs----|


   \1/    \1/    \1/              \1/    \1/            
   Q      Q      Q      Q         Q      Q    H         
------------------------------|------------------------|
------------------------------|------------------------|
------------------------------|------------------------|
------------------------------|------------------------|
------------------------------|------------------------|
---xs-----xs-----xs-----xs----|---xs-----x-------------|


-------|-------|-------||
-------|-------|-------||
-------|-------|-------||
-------|-------|-------||
-------|-------|-------||
-------|-------|-------||




Duration Legend
---------------
W - whole
H - half
Q - quarter
E - 8th
S - 16th
T - 32nd
X - 64th
. - note dotted
|-n-|  - n-tuplets


Tablature Legend
----------------
L - tied note
x - dead note
g - grace note
(n) - ghost note
> - accentuded note
NH - natural harmonic
AH - artificial harmonic
TH - tapped harmonic
SH - semi harmonic
PH - pitch harmonic
h - hammer on
p - pull off
b - bend
br - bendRelease
pb - preBend
pbr - preBendRelease
brb - bendReleaseBend
\n/ - tremolo bar dip
\n - tremolo bar dive
-/n - tremolo bar Release up
/n\ - tremolo bar inverted dip
/n - tremolo bar return
-\n - tremolo bar Release down
S - shift slide
s - legato slide
/ -  slide into from below or out of upwards
\ -  slide into from above or out of downwards
~ - vibrato
W - wide vibrato
tr - trill
TP - tremolo picking
T - tapping
S - slap
P - pop
< - fade in
^ - brush up
v - brush down
comments
We did not receive enough feedback on this tab! Please rate:
print report bad tab
1 2 3 4 5
I want to post or [tab]
guest
You may want to rate the tab now too:
select rating
Please do not post tabs as comments. Select "correction" instead!