Oops, an error
Loading. Please wait.

One Big Rush Tab

ver1
ver1

Whole song

Interactive

More versions @911Tabs.com
8,389 views 12 this week
1 commentread comment
1 2 3 4 5
excellent!
x 1
Autoscroll
+/-
esc
set tempo
stop
Contributor
Hey! There's an official Ultimate Guitar app which is ideal
for learning songs when you're away from computer. Get the app
WARNING: You are trying to view
                                    content from Ultimate-Guitar.com
                                    in an unauthorized application,
                                    which is prohibited.

                                    Please use an official Ultimate
                                    Guitar Tabs application for iPhone,
                                    iPad or Android to access legitimate
                                    chords, guitar, bass, and drum tabs
                                    from Ultimate-Guitar.com database.

                                    Type "ultimate guitar tabs" in Apple
                                    App Store's or Android Market's
                                    search to find the application.
                                  ONE BIG RUSH
                           As recorded by Joe Satriani
                  (From the 1989 Album FLYING IN A BLUE DREAM)

Music by Joe Satriani
Transcribed by www.mikesguitarsite.co.uk

  Q=176
 4/4
            Gtr I
|---------|-----------|------------|
|---------|-----------|------------|
|---------|-----------|------------|
|---------|-x\--------|------------|
|---------|-x\--------|-----12\----|
|---------|-----------|------------|


|--------------|--------------|-------------------|
|----8--7-8----|----7----7----|------8------------|
|----9--7-9----|-7--7-7--7----|------9--7-9-------|
|----9--7-9--0-|-0----0--0--7-|-(7)--7--7-7--7----|
|--------------|------------0-|-(0)---------------|
|-0------------|--------------|-------------------|


|------------------|---7---------|-------------|-----------------|
|------------------|---8--7-5----|-7--7---7----|-----------------|
|-9-7---7-(7)--7---|---9--7-9----|-7--7---7----|-9-9---7-7-9---6-|
|-7-7-7-7-(7)--7-9-|---9--7-9--0-|-0--0---0--7-|-7-7-7-7-7-7-7-7-|
|------------------|-------------|-----------0-|-0---------------|
|------------------|-------------|-------------|-----------------|


|--------------------|--------------|--------------|--------------|
|-10-10-10---10-7----|----8--7-8----|-7--8-7--7----|--------------|
|--7--7--7-7--7-7----|----9--7-9----|-7--7-7--7----|-9--9--7-9----|
|----------7----7----|----9--7-9--0-|-0-------0--7-|-7--7--7-7--7-|
|------------------7-|--------------|------------0-|-0----------0-|
|--------------------|-0------------|--------------|--------------|


|------------------|---7---------|-------------|
|------------------|---8--7-8----|-7--7---7----|
|-9-7---7-(7)--7---|---9--7-9----|-7--7---7----|
|-7-7-7-7-(7)--7-9-|---9--7-9--0-|-0--0---0--7-|
|------------------|-------------|-----------0-|
|------------------|-------------|-------------|


|-----------------|--------------------||
|-----------------|-10-10-10---10-7----||
|-9-9---7-7-9---6-|--7--7--7-7--7-7----||
|-7-7-7-7-7-7-7-7-|----------7----7----||
|-0---------------|------------------7-||
|-----------------|--------------------||


  Gtr II
              ~~~~~~~~~~~~~
|----------------------------|--------------------------------|
|----------------------------|--------------------------------|
|----14b16==(14)------(14)---|-(14)r----14b16==(14)r-14p12-14-|
|----------------------------|--------------------------------|
|----------------------------|--------------------------------|
|----------------------------|--------------------------------|
|
| Gtr I
|----------------------------|--------------------------------|
|-------------8---7-8--------|--------7---------------7-------|
|-------------9---7-9--------|---7----7--7------------7-------|
|-------------9---7-9------0-|---0-------0------------0-----7-|
|----------------------------|------------------------------0-|
|-0--------------------------|--------------------------------|


|--------------------------|-------------------------|
|--------------------------|-------------------------|
|-(14)-----14b16==(14)r----|------------------12-----|
|--------------------------|-------------14----------|
|--------------------------|-------------------------|
|--------------------------|-------------------------|
|
|--------------------------|-------------------------|
|-------8------------------|-------------------------|
|-------9---7-------9------|-9-7---7-(7)----7--------|
|--(7)--7---7-------7----7-|-7-7-7-7-(7)----7----9---|
|--(0)---------------------|-------------------------|
|--------------------------|-------------------------|


                                   ~~~~~~~~~~~~
|---------------------------------------|-------------------------------|
|---------------------------------------|-------------------------------|
|-14--14b15==(14)r---14--12-------------|-------------------------------|
|---------------------------14---(14)---|-(14)--------12s14s12----------|
|---------------------------------------|----------14----------12S14s12-|
|---------------------------------------|-------------------------------|
|
|------------------7--------------------|-------------------------------|
|------------------8------7----8--------|---7---7------------7----------|
|------------------9------7----9--------|---7---7------------7----------|
|------------------9------7----9------0-|---0---0------------0--------7-|
|---------------------------------------|-----------------------------0-|
|---------------------------------------|-------------------------------|


               ~~~~
|-----------------------|-------------------------|
|-----------------------|-------------------------|
|-----------------------|-------------------------|
|-----------------------|-------------------------|
|-(12)-------(12)-------|-(12)\-------------------|
|-----------------------|-------------------------|
|
|-----------------------|-------------------------|
|-----------------------|--10---10-10---10-7------|
|---9--9---7---7--9---6-|---7----7--7-7--7-7------|
|---7--7-7-7---7--7-7-7-|-------------7----7------|
|---0-------------------|---------------------7---|
|-----------------------|-------------------------|


                        ~~~~
|----------------------------|-------------------------------|
|----------------------------|-------------------------------|
|----14b16==(14)------(14)---|-(14)r----14b16==(14)r--14--14-|
|----------------------------|-------------------------------|
|----------------------------|-------------------------------|
|----------------------------|-------------------------------|
|
|----------------------------|-------------------------------|
|-------------8---7-8--------|---7----8----------7-----7-----|
|-------------9---7-9--------|---7----7----------7-----7-----|
|-------------9---7-9--------|---0---------------------0---7-|
|--------------------------0-|-----------------------------0-|
|-0--------------------------|-------------------------------|


|--------------------------|------------------------|
|--------------------------|------------------------|
|-[14]b17=====(14)r--------|------------------12----|
|--------------------------|-------------14---------|
|--------------------------|------------------------|
|--------------------------|------------------------|
|
|--------------------------|------------------------|
|--------------------------|------------------------|
|---9-------9-------7-9----|-9-7---7-(7)----7-------|
|---7-------7-------7-7--7-|-7-7-7-7-(7)----7----9--|
|---0--------------------0-|------------------------|
|--------------------------|------------------------|


                                   ~~~~
|---------------------------------------|--------------------------------|
|---------------------------------------|--------------------------------|
|-14--14b16==(14)r---14--12-------------|------12b14==(12)--(12)r===(12)-|
|---------------------------14---(14)---|-(14)---------------------------|
|---------------------------------------|--------------------------------|
|---------------------------------------|--------------------------------|
|
|------------------7--------------------|--------------------------------|
|------------------8------7----8--------|---7-----------7--------7-------|
|------------------9------7----9--------|---7-----------7--------7-------|
|------------------9------7----9------0-|---0-----------0--------0----7--|
|---------------------------------------|-----------------------------0--|
|---------------------------------------|--------------------------------|


                       ~~~~~~~~~~~~~~~~
|-------------------------------|------------------------|
|-------------------------------|------------------------|
|-------------------------------|------------------------|
|-14b17==(14)r(14)---(14)-------|-(14)----(14)\----------|
|-------------------------------|------------------------|
|-------------------------------|------------------------|
|
|-------------------------------|------------------------|
|-------------------------------|--10--10-------10--7----|
|--9-------9-------7---7--9---6-|---7---7---7----7--7--5-|
|--7-------7----7--7---7--7-7-7-|-----------7-------7--5-|
|--0----------------------------|------------------------|
|-------------------------------|------------------------|


|-------------20b22==(20)---|-(20)r--------------------------|
|---17---20-----------------|----------20b22==(20)r(20)-17---|
|---------------------------|--------------------------------|
|---------------------------|--------------------------------|
|---------------------------|--------------------------------|
|---------------------------|--------------------------------|
|
|---------------------------|--------------------------------|
|-------------------------8-|--(8)-------------------8-------|
|-5------------5----------9-|--(9)-------------------9-----5-|
|-5-------5-5--5----------9-|--(9)-------------------9-----5-|
|-3----3--3-3-------------7-|--(7)---7--7-------7----------3-|
|---------------------------|--------------------------------|


                                        ~~~~~~~~~~~~~
|-----------------------------------|-----------------------|
|-(17)-17---20---20b24==(20)r----17-|-(17)------(17)--------|
|-----------------------------------|-----------(17)--------|
|-----------------------------------|-----------------------|
|-----------------------------------|-----------------------|
|-----------------------------------|-----------------------|
|
|-----------------------------------|-----------------------|
|-----------------------------------|---8-------------------|
|---5-------------------------------|---9---------9--7--5---|
|---5----------5---------------9----|---9---------9--7--5---|
|---3-----3--3-3h=5------------7----|---7---7-7-------------|
|-----------------------------------|-----------------------|


|-----------------------20b22==(20)---|-(20)r------------------------------------|
|---17---20b22==(20)r-----------------|----------20b22==(20)r(20)-17-20b22==(20)-|
|-------------------------------------|------------------------------------------|
|-------------------------------------|------------------------------------------|
|-------------------------------------|------------------------------------------|
|-------------------------------------|------------------------------------------|
|
|      PM---------------|                      PM-------|
|-------------------------------------|------------------------------------------|
|-------------------------------------|---------------------------------------7--|
|-5-------------------5-------------9-|---9-----------------------------------7--|
|-5-------------------5-------------9-|---9---------------9s===7--------------7--|
|-3----3----------3---3s=5----------7-|---7----7--7-------7s===5---5-------------|
|-------------------------------------|------------------------------------------|


                                ~~~~
|---------------------------|--------------------------|
|-(20)------(20)r(20)-17----|--------------------------|
|------------------------19-|-(19)-----------(19)\-----|
|---------------------------|--------------------------|
|---------------------------|--------------------------|
|---------------------------|--------------------------|
|
|         PM|
|---------------------------|--------------------------|
|---7-----------------------|--------------------------|
|---7---7-------------------|---7----------------------|
|---7---7----------7--------|---7----------7-------4---|
|---------5---5----5------5-|---5--5-5-0-5-5---0---2---|
|---------------------------|--------------------------|


                                                                       ~~
|---------------------------20b22==(20)---|-(20)r--------------------------|
|-------17---20b22==(20)r-----------------|----------20b22==(20)r(20)-17---|
|-17s19-----------------------------------|--------------------------------|
|-----------------------------------------|--------------------------------|
|-----------------------------------------|--------------------------------|
|-----------------------------------------|--------------------------------|
|
|-----------------------------------------|--------------------------------|
|---------------------------------------8-|--(8)-------------------8-------|
|-----5----------------------5----------9-|--(9)-------------------9-----5-|
|-----5---------------5---5--5----------9-|--(9)-------------------9-----5-|
|-----3----3----------3---3-------------7-|--(7)---7--7-------7----------3-|
|-----------------------------------------|--------------------------------|


                                           ~~~~~~~~~
|---------------------------------|-----------------------------|
|-(17)-17---20---20b24==(20)-(20)r|=(20)--17---(17)---(17)\-----|
|---------------------------------|-----------------------------|
|---------------------------------|-----------------------------|
|---------------------------------|-----------------------------|
|---------------------------------|-----------------------------|
|
|---------------------------------|-----------------------------|
|---------------------------------|---8-------------------------|
|---5-----------------------------|---9----------9--7-------5---|
|---5----------5---------------9--|---9----------9--7-------5---|
|---3-----3--3-3h=5------------7--|---7----7-7------------------|
|---------------------------------|-----------------------------|


|--------17---20b22==(20)---|-(20)r-------------------------------------|
|---17----------------------|----------20b22==(20)r(20)-17--20b22==(20)-|
|---------------------------|-------------------------------------------|
|---------------------------|-------------------------------------------|
|---------------------------|-------------------------------------------|
|---------------------------|-------------------------------------------|
|
|---------------------------|-------------------------------------------|
|---------------------------|----------------------------------------7--|
|-5---------5-------------9-|---9------------------------------------7--|
|-5---------5-------------9-|---9---------------9----7---------------7--|
|-3----3--3-3h=5----------7-|---7----7--7-------7----5--(5)-------------|
|---------------------------|-------------------------------------------|


    ~~~~                                  ~~~~
|------------------0-17b19==(17)r(17)-|-(17)-----------------|
|-(20)------(20)r\-0------------------|----------------------|
|-------------------------------------|----------------------|
|-------------------------------------|----------------------|
|-------------------------------------|----------------7-----|
|-------------------------------------|----------------------|
|
|-------------------------------------|----------------------|
|---7---------------------------------|----------------------|
|---7---7-----------------------------|---7------------------|
|---7---7----------7------------------|---7----------7---4---|
|---------5---5----5---------------5--|---5--5-5-0-5-5-0-2---|
|-------------------------------------|----------------------|


                                               ~~~~~
|-20b22==(20)-----(20)r(20)-19-------------|---------------------|
|------------------------------22b24==(22)-|-(22)r---------------|
|------------------------------------------|---------------------|
|------------------------------------------|---------------------|
|------------------------------------------|----------------19\--|
|------------------------------------------|----------------19\--|
|
|------------------------------------------|---------------------|
|-------------0----(0)---------------------|---------------------|
|-------------4----(4)---------------------|---------------------|
|---------(4)---------------------------4--|---4---4-4-4-4-------|
|---------(2)---------------------------2--|---2---2-2-2-2-------|
|------------------------------------------|---------------------|


|-------------------------|-----------------||
|-------------------------|-----------------||
|-0b4==(0)----------------|-(0)r=====(0)----||
|-------------------------|-----------------||
|-------------------------|-----------------||
|-------------------------|-----------------||
|
|-------------------------|-----------------||
|-------------------------|-----------------||
|-------------------------|-----------------||
|-------x\--/x-/x\--/x-xs=|==x--------------||
|-------x\--/x-/x\--/x-xs=|==x--------------||
|-------------------------|--------------0--||


                                                                         ~~~~~~
|----------------------12----|---------------------------------------------------|
|-15b17==(15)r------------12-|-15-15b17==(15)r---15-15b17==(15)r-15pb16-15pb17---|
|----------------------------|---------------------------------------------------|
|----------------------------|---------------------------------------------------|
|----------------------------|---------------------------------------------------|
|----------------------------|---------------------------------------------------|
|
|                          PM              PM--|
|----------------------------|---------------------------------------------------|
|---------------8------------|---------------------------------------------------|
|---------------9--7-9-------|---------------------------------------------------|
|---------------9--7-9-------|--5-----------------5---------------5------------5-|
|----------7-----------------|--5-----------------5---------------5------------3-|
|--------------------------3-|-------------3---3---------------------------------|


            ~~                                                             ~~~~~
|-12------------12---------------------------|------------------------------------------|
|----15p12-15------15p==12h15p12-------------|------------------------------------------|
|--------------------------------15b17==(15)r|=(15)p12--------------------------0-------|
|--------------------------------------------|---------14p12----------------------------|
|--------------------------------------------|---------------14b17==(14)-(14)r----9s10--|
|--------------------------------------------|------------------------------------------|
|
|           PM--------------------------|               PM---|                  PM|
|--------------------------------------------|------------------------------------------|
|--------------------------------------------|------------------------------------------|
|--5-----------------------------------------|---5--------------------------------------|
|--5------------------5----------------------|---5--------------------7----7----7-------|
|--3--------3-3--3----3-----3-------------3--|----------5-----5-------5----5----5-7-----|
|--------------------------------------------|------------------------------------------|


|---17b19==(17)--(17)r(17)-17pb19==(17)r(17)---17pb19r|=(17)---17pb19r(17)---17b18==(17)r(17)-17b18==(17)-(17)r(17)-15----------|
|-----------------------------------------------------|------------------------------------------------------------------17b20==|
|-0---------------------------------------------------|-------------------------------------------------------------------------|
|-----------------------------------------------------|-------------------------------------------------------------------------|
|-----------------------------------------------------|-------------------------------------------------------------------------|
|-----------------------------------------------------|-------------------------------------------------------------------------|
|
|                                                            PM-------|
|-----------------------------------------------------|-------------------------------------------------------------------------|
|-----------------------------------------------------|-------------------------------------------------------------------------|
|------------9----------9-----------------------------|-------------------------------------------------------------------------|
|-9----------9-----9----9--------------------5--------|--(5)---------------5---------------------------5---------------5--------|
|-7----------------7-------------------------5--------|--(5)---------------5---------------------------5---------------3--------|
|-----------------------------------------------------|------3----------3-------------------------------------------------------|


                                                          ~~~~
|-----------------------------------------|-------------------------------22---|
|-(17)---(17)r==17p15h17-17b20==(17)r(17)-|-17b20==(17)r(17)-----(17)----------|
|-----------------------------------------|---------------------------0-0------|
|-----------------------------------------|------------------------------------|
|-----------------------------------------|------------------------------------|
|-----------------------------------------|------------------------------------|
|
|      PM     PM|                 PM---------------|
|-----------------------------------------|------------------------------------|
|-----------------------------------------|------------------------------------|
|---5---------------5---------------------|------------------------------------|
|---5------5--------5---------------------|----------5---------2--(2)----------|
|---3--3------3--3----------------3----3--|----------3---------0--(0)---0------|
|-----------------------------------------|---------------0--3-------------3---|


|-22-19h22--(22)p19-22-19-22b24==|=(22)r-------22b24==(22)r(22)-19-19h20p19-17-17-|
|--------------------------------|------------------------------------------------|
|--------------------------------|------------------------------------------------|
|--------------------------------|------------------------------------------------|
|--------------------------------|------------------------------------------------|
|--------------------------------|------------------------------------------------|
|
|  PM---|
|--------------------------------|------------------------------------------------|
|--------8-----------------------|------------------------------------------------|
|--------9----7---9--------------|------------------------------------------------|
|--------9----7---9--------------|---5-------5-------------------5-----------5----|
|--7-----------------------------|---5-------5-------------------5-----------3----|
|--------------------------3-----|-------3-3--------------------------------------|


|-19-19-19h20-19-17h19p17-15-15-17-17-19p17-15-15h17p15-14-14-|
|-------------------------------------------------------------|
|-------------------------------------------------------------|
|-------------------------------------------------------------|
|-------------------------------------------------------------|
|-------------------------------------------------------------|
|
|-------------------------------------------------------------|
|-------------------------------------------------------------|
|--5----------------------------------------------------------|
|--5-----------------------------------5----------------------|
|--3--------------3--------3-----3-----3--------3--------3----|
|-------------------------------------------------------------|


|-15-15-15-17p15p14-15-15-17p15-14-15-15h17-15-17-17-17h19-17p15-|
|----------------------------------------------------------------|
|----------------------------------------------------------------|
|----------------------------------------------------------------|
|----------------------------------------------------------------|
|----------------------------------------------------------------|
|
|----------------------------------------------------------------|
|----------------------------------------------------------------|
|--5-------------------------------------------------------------|
|--5-----------------------7--------7--------------7-------------|
|-----------5--------5-----5--------5--------------5-----7-------|
|----------------------------------------------------------------|


|-17-15-14h15p14p12-14-12p10-10h12p10-8-8h10p8p7-7h8h10p8p==|
|-----------------------------------------------------------|
|-----------------------------------------------------------|
|-----------------------------------------------------------|
|-----------------------------------------------------------|
|-----------------------------------------------------------|
|
|-----------------------------------------------------------|
|-----------------------------------------------------------|
|-----------------9------------------------9----------------|
|--9--------------9-----------------9------9----------5-----|
|--7--------------------------------7-----------------5-----|
|-----------------------------------------------------------|


|--7--7h8h10p8p7p0-------------------------|
|------------------8p7s5-8p7p5-------------|
|------------------------------7p5p4-7p4h5p|
|------------------------------------------|
|------------------------------------------|
|------------------------------------------|
|
|------------------------------------------|
|------------------------------------------|
|------------------------------------------|
|-(5)--------------5-----5-----------5-----|
|-(5)--------------5-----5-----------3-----|
|-----3----3-------------------------------|


|-------------------------------------------||
|-------------------------------------------||
|-4h5h7---9p5p4h5h7p==5p4-------------------||
|-------------------------7p5p4h==5h7-5p4---||
|-----------------------------------------5-||
|-------------------------------------------||
|
|-------------------------------------------||
|-------------------------------------------||
|-5-----------------------------5-----------||
|-5-----------5-----------------5-----------||
|-3-----3-----------3-----3-----------3---3-||
|-------------------------------------------||


                     \2        \1/
          ~~~~
|---------------------------|----------------------|
|---------------------------|------12----(12)-13---|
|---------------------------|-14----4-----(4)--5---|
|---------------------------|--7-------------------|
|-5b7====(5)r--------0--(0)-|----------------------|
|---------------------------|----------------------|
|
|                                      PM|
|---------------------------|----------------------|
|---------------------------|----------------------|
|-5-----------5-(5)--5------|----------------------|
|-5-----------5-(5)--5------|----------------------|
|------3--3---3-(3)---------|--3-------3-------3---|
|---------------------------|--1-----------1---1---|


   \1/                    \1/
              ~~~~
|--------12-(12)-------|-14-------15-15------|
|-15------5--(5)-------|--7--------8--8------|
|--7-------------------|---------------------|
|----------------------|---------------------|
|----------------------|---------------------|
|----------------------|---------------------|
|
|         PM---------|        PM--|      PM|
|----------------------|---------------------|
|----------------------|---------------------|
|----------------------|---------------------|
|--2------2------2---4-|--5--------5--5------|
|--0----------0--0-0-2-|--3---3-3--3-----3-3-|
|----------------------|---------------------|


                        \1/
    ~~~~
|-(15)---------------|----------------------|
|--(8)---------------|------12----(12)-13---|
|---------------12\--|-14----4-----(4)--5---|
|--------------------|--7-------------------|
|--------------------|----------------------|
|--------------------|----------------------|
|
|   PM-----|                    PM|
|--------------------|----------------------|
|--------------------|----------------------|
|------------5-------|----------------------|
|---4------5-5-------|----------------------|
|---3--3-3-3-3-------|--3-------3-------3---|
|--------------------|--1-----------1---1---|


   \1/                    \1/    \1/
              ~~~~
|--------12-(12)-------|-15--------------------|
|-15------5--(5)-------|--8-----15---(15)------|
|--7-------------------|---------7----(7)------|
|----------------------|-----------------------|
|----------------------|-----------------------|
|----------------------|-----------------------|
|
|         PM---------|
|----------------------|-----------------------|
|----------------------|---------3----(3)------|
|----------------------|--5------0----(0)--0---|
|--2------2------2---4-|--5------0----(0)--0---|
|--0----------0--0-0-2-|--3--------------------|
|----------------------|---------3----(3)----3-|


|----------15b17==(15)r(15)------------------|---------------------------------|
|-(15)---0--8b10===(8)r=(8)-15b17==(15)r(15)-|-(15)----------------------------|
|--(7)-----------------------7b9====(7)r=(7)-|--(7)-14b16==(14)r(14)-----------|
|--------------------------------------------|-------7b9====(7)r=(7)-----------|
|--------------------------------------------|---------------------------------|
|--------------------------------------------|---------------------------------|
|
|--------------------------------------------|---------------------------------|
|--------------------------------------------|---------------------------------|
|---0---------------0----0----------------2--|--(2)---------------2--2-2-2-2-2-|
|---0---------------0----0----------------0--|--(0)---------------0--0-0-0-0-0-|
|------------------------------------3-------|---------------------------------|
|--------------------------------------------|---------------------------------|


    ~~~~
|----------15-15b17==(15)r(15)-17-17b22==(17)-|
|-----------8--8b10===(8)r=(8)-10-10b15==(10)-|
|-(14)----------------------------------------|
|--(7)----------------------------------------|
|---------------------------------------------|
|---------------------------------------------|
|
|---------------------------------------------|
|------------------------------------------5--|
|---2--2-2--2------------------------------4--|
|---0--0-0--0------------------------------4--|
|--------------3b5====(3)r=(3)--0----------2--|
|---------------------------------------------|


|-(17)-----(17)r(17)-17b19==(17)---|
|-(10)-----(10)r(10)-10b12==(10)---|
|----------------------------------|
|----------------------------------|
|----------------------------------|
|----------------------------------|
|
|----------------------------------|
|----------------------------------|
|-------4---------4--------------4-|
|--(4)--4----4----------------4--4-|
|--(2)--2------------------------2-|
|----------------------------------|


                        \2.5
    ~~~~~
|-(17)r--------------|--------------|---------------||
|-(10)r--------------|--------------|---------------||
|--------------------|-[2]----------|-(2)------(2)--||
|--------------------|--------------|---------------||
|---------------12\--|--------------|---------------||
|--------------------|--------------|---------------||
|
|--------------------|--------------|---------------||
|---4----------------|--------------|---------------||
|---4----4-4---------|--------------|---------------||
|---4----4---4-------|--------------|---------------||
|------------2-------|-[2]----------|-(2)-----------||
|--------------------|--------------|---------------||


                        ~~~~
|----------------------------|--------------------------------|
|----------------------------|--------------------------------|
|----14b16==(14)------(14)---|-(14)r----14b16==(14)r-14p12-14-|
|----------------------------|--------------------------------|
|----------------------------|--------------------------------|
|----------------------------|--------------------------------|
|
|----------------------------|--------------------------------|
|-------------8---7-8--------|--------7---------------7-------|
|-------------9---7-9--------|---7----7--7------------7-------|
|-------------9---7-9------0-|---0-------0------------0-----7-|
|----------------------------|------------------------------0-|
|-0--------------------------|--------------------------------|


|--------------------------|-------------------------|
|--------------------------|-------------------------|
|-(14)-----14b16==(14)r----|------------------12-----|
|--------------------------|-------------14----------|
|--------------------------|-------------------------|
|--------------------------|-------------------------|
|
|--------------------------|-------------------------|
|-------8------------------|-------------------------|
|-------9---7-------9------|-9-7---7-(7)----7--------|
|--(7)--7---7-------7----7-|-7-7-7-7-(7)----7----9---|
|--(0)---------------------|-------------------------|
|--------------------------|-------------------------|


                                   ~~~~~~~~~~~~
|---------------------------------------|-------------------------------|
|---------------------------------------|-------------------------------|
|-14--14b15==(14)r---14--12-------------|-------------------------------|
|---------------------------14---(14)---|-(14)--------12h14p12----------|
|---------------------------------------|----------14----------12S14p12-|
|---------------------------------------|-------------------------------|
|
|------------------7--------------------|-------------------------------|
|------------------8------7----8--------|---7---7------------7----------|
|------------------9------7----9--------|---7---7------------7----------|
|------------------9------7----9------0-|---0---0------------0--------7-|
|---------------------------------------|-----------------------------0-|
|---------------------------------------|-------------------------------|


|--------------------|------------------------|
|--------------------|------------------------|
|--------------------|------------------------|
|--------------------|------------------------|
|-(12)---------------|-(12)-------------------|
|--------------------|------------------------|
|
|--------------------|------------------------|
|--------------------|--10--10-10---10-7------|
|---9--9---7-7-9---6-|---7---7--7-7--7-7------|
|---7--7-7-7-7-7-7-7-|------------7----7------|
|---0----------------|--------------------7---|
|--------------------|------------------------|


|-------------------------|-------------------------------|
|-------------------------|-------------------------------|
|-----14b16==(14)---------|-(14)r----14b16==(14)r--14--12-|
|---x---------------------|-------------------------------|
|-------------------------|-------------------------------|
|-------------------------|-------------------------------|
|
|-------------------------|-------------------------------|
|--------------8---7-8----|--------7----------------7-----|
|--------------9---7-9----|---7----7----------7-----7-----|
|--------------9---7-9--0-|---0---------------0-----0---7-|
|-------------------------|-----------------------------0-|
|-0-----------------------|-------------------------------|


|------------------------------|-------------------------|
|------------------------------|-------------------------|
|-14-----12-------12b14==(12)r-|------------------12-----|
|-----------14-----------------|-------------14----------|
|------------------------------|-------------------------|
|------------------------------|-------------------------|
|
|------------------------------|-------------------------|
|------8-----------------------|-------------------------|
|------9-----7-9---------------|-9-7---7-(7)----7--------|
|-(7)--7-----7-7-----------7---|-7-7-7-7-(7)----7----9---|
|-(0)--------------------------|-------------------------|
|------------------------------|-------------------------|


|---------------------------------------|---------------------------------|
|---------------------------------------|---------------------------------|
|-14--14b16==(14)r---14--12-------------|------12b14==(12)--(12)----(12)r-|
|---------------------------14---(14)---|-(14)----------------------------|
|---------------------------------------|---------------------------------|
|---------------------------------------|---------------------------------|
|
|------------------7--------------------|---------------------------------|
|------------------8------7----8--------|---7-----------7--------7--------|
|------------------9------7----9--------|---7-----------7--------7--------|
|------------------9------7----9------0-|---0-----------0--------0----7---|
|---------------------------------------|-----------------------------0---|
|---------------------------------------|---------------------------------|


|-------------------------------|----------------------------|
|-------------------------------|----------------------------|
|-------------------------------|----------------------------|
|-14b18==(14)r(14)---(14)-------|-(14)---------(14)-(14)\----|
|-------------------------------|----------------------------|
|-------------------------------|----------------------------|
|
|-------------------------------|----------------------------|
|-------------------------------|--10--10---10--------7------|
|--9-------9-------7---7--9---6-|---7---7-7--7--------7----5-|
|--7-------7----7--7---7--7-7-7-|---------7-----------7----5-|
|--0----------------------------|----------------------------|
|-------------------------------|----------------------------|


|-------------20b22==(20)---|-(20)r--------------------------|
|---17---20-----------------|----------20b22==(20)r(20)-17---|
|---------------------------|--------------------------------|
|---------------------------|--------------------------------|
|---------------------------|--------------------------------|
|---------------------------|--------------------------------|
|
|---------------------------|--------------------------------|
|-------------------------8-|--(8)-------------------8-------|
|-5------------5----------9-|--(9)-------------------9-----5-|
|-5-------5-5--5----------9-|--(9)-------------------9-----5-|
|-3----3--3-3-------------7-|--(7)---7--7-------7----------3-|
|---------------------------|--------------------------------|


                                        ~~~~~~~~~~~~~
|-----------------------------------|-----------------------|
|-(17)-17---20---20b24==(20)r----17-|-(17)------(17)--------|
|-----------------------------------|-----------(17)--------|
|-----------------------------------|-----------------------|
|-----------------------------------|-----------------------|
|-----------------------------------|-----------------------|
|
|-----------------------------------|-----------------------|
|-----------------------------------|---8-------------------|
|---5-------------------------------|---9---------9--7--5---|
|---5----------5---------------9----|---9---------9--7--5---|
|---3-----3--3-3h=5------------7----|---7---7-7-------------|
|-----------------------------------|-----------------------|


|-----------------------20b22==(20)---|-(20)r------------------------------------|
|---17---20b22==(20)r-----------------|----------20b22==(20)r(20)-17-20b22==(20)-|
|-------------------------------------|------------------------------------------|
|-------------------------------------|------------------------------------------|
|-------------------------------------|------------------------------------------|
|-------------------------------------|------------------------------------------|
|
|      PM---------------|                      PM-------|
|-------------------------------------|------------------------------------------|
|-------------------------------------|---------------------------------------7--|
|-5-------------------5-------------9-|---9-----------------------------------7--|
|-5-------------------5-------------9-|---9---------------9s===7--------------7--|
|-3----3----------3---3s=5----------7-|---7----7--7-------7s===5---5-------------|
|-------------------------------------|------------------------------------------|


                                ~~~~
|---------------------------|--------------------------|
|-(20)------(20)r(20)-17----|--------------------------|
|------------------------19-|-(19)-----------(19)\-----|
|---------------------------|--------------------------|
|---------------------------|--------------------------|
|---------------------------|--------------------------|
|
|         PM|
|---------------------------|--------------------------|
|---7-----------------------|--------------------------|
|---7---7-------------------|---7----------------------|
|---7---7----------7--------|---7----------7-------4---|
|---------5---5----5------5-|---5--5-5-0-5-5---0---2---|
|---------------------------|--------------------------|


                                                                   ~~
|---------------------0-20b22==(20)---|-(20)r--------------------------|
|---17---20b22==(20)r-----------------|----------20b22==(20)r(20)-17---|
|-------------------------------------|--------------------------------|
|-------------------------------------|--------------------------------|
|-------------------------------------|--------------------------------|
|-------------------------------------|--------------------------------|
|
|-------------------------------------|--------------------------------|
|-----------------------------------8-|--(8)-------------------8-------|
|-5----------------------5----------9-|--(9)-------------------9-----5-|
|-5---------------5---5--5----------9-|--(9)-------------------9-----5-|
|-3----3----------3---3-------------7-|--(7)---7--7-------7----------3-|
|-------------------------------------|--------------------------------|


                                           ~~~~~~~~~
|---------------------------------|---------------------------|
|-(17)-17---20---20b24==(20)-(20)r|=(20)--17---(17)---(17)----|
|---------------------------------|------------------------19-|
|---------------------------------|---------------------------|
|---------------------------------|---------------------------|
|---------------------------------|---------------------------|
|
|---------------------------------|---------------------------|
|---------------------------------|---8-----------------------|
|---5-----------------------------|---9----------9--7-------5-|
|---5----------5---------------9--|---9----------9--7-------5-|
|---3-----3--3-3h=5------------7--|---7----7-7----------------|
|---------------------------------|---------------------------|


|-----------0-20b22==(20)---|-(20)r-------------------------------------|
|---17---20-----------------|----------20b22==(20)r(20)-17--20b22==(20)-|
|---------------------------|-------------------------------------------|
|---------------------------|-------------------------------------------|
|---------------------------|-------------------------------------------|
|---------------------------|-------------------------------------------|
|
|---------------------------|-------------------------------------------|
|---------------------------|----------------------------------------7--|
|-5---------5-------------9-|---9------------------------------------7--|
|-5---------5-------------9-|---9---------------9----7---------------7--|
|-3----3--3-3h=5----------7-|---7----7--7-------7----5--(5)-------------|
|---------------------------|-------------------------------------------|


    ~~~~                                   ~~~~~~~~~~~~~~
|-------------------0-17b19==(17)r(17)-|-(17)-------(17)----------||
|-(20)------(20)r\-20------------------|------------(17)---15-0---||
|--------------------------------------|--------------------------||
|--------------------------------------|--------------------------||
|--------------------------------------|--------------------------||
|--------------------------------------|--------------------------||
|
|--------------------------------------|--------------------------||
|---7----------------------------------|--------------------------||
|---7---7------------------------------|---7----------------------||
|---7---7-----------7------------------|---7-------------7----4---||
|---------5---5-----5---------------5--|---5--5-5-0---5--5--0-2---||
|--------------------------------------|--------------------------||


|---22b24==(22)---(22)r---22-19-|-22-22b24==(22)r-------15b17==(15)r---|
|-0-----------------------------|---------------------0-15b17==(15)r---|
|-------------------------------|--------------------------------------|
|-------------------------------|--------------------------------------|
|-------------------------------|--------------------------------------|
|-------------------------------|--------------------------------------|
|
|-------------------------------|-10-----------------------------------|
|-------------------------------|--8-----------------------------------|
|-5-----------------------------|--7-----------------------------------|
|-5---------------------5-----9-|--9-----------------------------------|
|-3----------3--3---3---3-----7-|-----------------7-7-7--7-------7---3-|
|-------------------------------|--------------------------------------|


                                               ~~
|-12----------------------------------------|----------------------|
|----15-------------------------------------|----------------------|
|-------14pb15-14b16==(14)r(14)p12----------|----------------------|
|----------------------------------14-------|-------------------0--|
|-------------------------------------14p12-|-10-----(10)\--/14----|
|-------------------------------------------|----------------------|
|
|-------------------------------------------|----------------------|
|-------------------------------------------|----------------------|
|-------------------------------------------|----------------------|
|--5-------------------------5------------9-|--9---4---4--------5--|
|--3--3--3--------------3----3---3--3-----7-|--7---2---2--------3--|
|-------------------------------------------|----------------------|


                                             T     T     T
|----------------------12----------------------------------------|
|---------------------------12-----------------------------------|
|----14b16==(14)-(14)r---------14b16==(14)r-21p15h21p14h21p15h21p|
|----------------------------------------------------------------|
|----------------------------------------------------------------|
|-12-------------------------------------------------------------|
|
|----------------------------------------------------------------|
|----------------------------------------------------------------|
|----------------------------------------------------------------|
|--5--------------------------------------------------7-----9----|
|--3----------3----3------3-------------3-------3-----5-----7----|
|----------------------------------------------------------------|


      T     T     T     T                                                               ~~
|-------------------------------------------------------|----------------------------|-----------------------|
|-------------------------------------------------------|----------------------------|-----------------------|
|-14h21p15h21p14h21p15h21-14b16==(14)r(14)p12----12b14==|=(12)------(12)r12----------|--------------------12-|
|---------------------------------------------14--------|-------------------12s14-12-|-12------(12)\--/12----|
|-------------------------------------------------------|----------------------------|-----------------------|
|-------------------------------------------------------|----------------------------|-----------------------|
|
|-------------------------------------------------------|----------------------------|-----------------------|
|-------------------------------------------------------|----------------------------|-----------------------|
|-------------------------------------------------------|-------7--------------------|-----------------------|
|--9-------------------------------9--------------7-----|---7---7---------7--------7-|--7--------7---------5-|
|--7-----7-----7-----7-------------7----5---------5-----|---5-----5---5---5--------5-|--5--5-5---5------2--3-|
|----------------------------------------------7--------|----------------------------|-----------------------|


|-----------------------------------------|-------------------------------------|
|-----------------------------------------|-------------------------------------|
|-14--14b16==(14)r---14----12-------------|------12b14==(12)---(12)---(12)r(12)-|
|-----------------------------14---(14)---|-(14)--------------------------------|
|-----------------------------------------|-------------------------------------|
|-----------------------------------------|-------------------------------------|
|
|-----------------------------------------|-------------------------------------|
|-----------------------------------------|---8------------------7--8-----------|
|-----------------------------------------|---9------------------7--9--------5--|
|--5-----------------------------5------9-|---9------------------------------5--|
|--3---------------3----3---3----3------7-|---------------7--7---------------3--|
|-----------------------------------------|-------------------------------------|


                       ~~~~~~~~~~~~~~~~
|-------------------------------|----------------------|
|-------------------------------|----------------------|
|-------------------------------|----------------------|
|-14b17==(14)r(14)---(14)-------|-(14)--(14)\----------|
|-------------------------------|----------------------|
|-------------------------------|----------------------|
|
|-------------------------------|----------------------|
|---------------7---------------|---------------4------|
|-(5)-----------7------5--------|---9---------4-4---5--|
|-(5)------------------5------9-|---9---------4-4---5--|
|-(3)--------------3------3-3-7-|---7---------2-2---3--|
|-------------------------------|----------------------|


     ~~
|-------------20b22==(20)---|-(20)r------------------------------------|
|---17---20-----------------|----------20b22==(20)r(20)-17-20b22==(20)-|
|---------------------------|------------------------------------------|
|---------------------------|------------------------------------------|
|---------------------------|------------------------------------------|
|---------------------------|------------------------------------------|
|
|---------------------------|------------------------------------------|
|---------------------------|------------------------------------------|
|-5--------------------5----|---9-----------------------------------7--|
|-5--------------------5--9-|---9---------------9----7--------------7--|
|-3----3--3-3--3----------7-|---7----7--7-------7-------------------5--|
|---------------------------|------------------------------------------|


                                            ~~~~
|-----------------------17b19==(17)r-17-|-(17)--------------17b19===|
|-(20)-------(20)r(20)------------------|---------------------------|
|---------------------------------------|---------------------------|
|---------------------------------------|---------------------------|
|---------------------------------------|---------------------------|
|---------------------------------------|---------------------------|
|
|---------------------------------------|---------------------------|
|---------------------------------------|---8-----------------------|
|--(7)-7--------------------------------|---7------7-(7)-----4------|
|--(7)-7-7----------7-----------------7-|----------7-(7)-----4------|
|--(5)-----5---5----------------------5-|------5-5-5-(5)--5--2------|
|---------------------------------------|---------------------------|


                                                   ~~~~~            ~~~~~
|-(17)--(17)r==(17)---17b18==(17)r-17b19==(17)-|-(17)r-----17b19==(17)r---21b23==|
|----------------------------------------------|---------------------------------|
|----------------------------------------------|---------------------------------|
|----------------------------------------------|---------------------------------|
|----------------------------------------------|---------------------------------|
|----------------------------------------------|---------------------------------|
|
|----------------------------------------------|---------------------------------|
|----------------------------------------------|---------------------------------|
|--(4)--------------4--------------------------|---4----4-----------4------------|
|--(4)-------4------4-----------------------4--|---4----4-----------4------2-----|
|--(2)----2--2---2-------------2------------2--|---2----2------------------2-----|
|----------------------------------------------|---------------------------------|


                                         ~~~~~
|-(21)---(21)r=(21)---21-21b23==(21)-|-(21)r-------------|
|------------------------------------|-------------------|
|------------------------------------|-------------------|
|------------------------------------|-------------------|
|------------------------------------|--------------21S0-|
|------------------------------------|-------------------|
|
|------------------------------------|-------------------|
|----------5-------------------------|-------------------|
|----------4-----------2----------4--|-------------------|
|--(2)-4---4-----4--2--2----------4--|---4----4--4-------|
|--(2)-2--------------------------2--|---2----2--2-------|
|------------------------------------|-------------------|


                            ~~~~~~~~~~~~~~~~~~~~~~~~~~~~~~~~~
|------15-(15)--17--|-(17)-18---(18)----|-(18)--------|-(18)----|
|-17----------------|-------------------|-------------|---------|
|-------------------|-------------------|-------------|---------|
|-------------------|-------------------|-------------|---------|
|-------------------|-------------------|-------------|---------|
|-------------------|-------------------|-------------|---------|
|
|-------------------|-------------------|-------------|---------|
|-------------------|-------------------|--15---------|-(15)----|
|------12-(12)--14--|-(14)-15---(15)----|-(15)--------|-(15)----|
|-14----------------|-------------------|-------------|---------|
|-------------------|-------------------|-------------|---------|
|-------------------|-------------------|-------------|---------|


    ~~~~                                        ~~~~
|-(18)--------|-(18)\---22b24==(22)r---22b24==(22)-|-(22)r\--------*|
|-------------|------------------------------------|---------------*|
|-------------|------------------------------------|---------------*|
|-------------|------------------------------------|---------------*|
|-------------|------------------------------------|---------------*|
|-------------|------------------------------------|---------------*|
|
|-------------|------------------------------------|---------------*|
|-(15)--------|-(15)-------------------------------|---------------*|
|-(15)--------|-(15)------------12-------------12--|-(12)\---------*|
|-------------|-----------------12-------------12--|-(12)\---------*|
|-------------|------------------------------------|---------------*|
|-------------|------------------------------------|---------------*|



***************************************************************************************
* Generated using Power Tab Editor by Brad Larsen - http://powertab.guitarnetwork.org *
***************************************************************************************
comments
We did not receive enough feedback on this tab! Please rate:
print report bad tab
1 2 3 4 5
1 comment total.
0 reply
vanhalenforever wrote on April 12 2007, 08:27 am

very good tab

I want to post or [tab]
guest
You may want to rate the tab now too:
select rating
Please do not post tabs as comments. Select "correction" instead!