Oops, an error
Loading. Please wait.

Starry Night Tab

ver1
ver1

Solo

Whole song

More versions @911Tabs.com
76,813 views 188 this week
10 commentsread comments
1 2 3 4 5
excellent!
x 27
add to favorites launch autoscroll
font size
0
reset
Autoscroll
+/-
esc
set tempo
stop
WARNING: You are trying to view
                                    content from Ultimate-Guitar.com
                                    in an unauthorized application,
                                    which is prohibited.

                                    Please use an official Ultimate
                                    Guitar Tabs application for iPhone,
                                    iPad or Android to access legitimate
                                    chords, guitar, bass, and drum tabs
                                    from Ultimate-Guitar.com database.

                                    Type "ultimate guitar tabs" in Apple
                                    App Store's or Android Market's
                                    search to find the application.
Joe Satriani - Starry Night
Tabbed By
Julian Loor Maruri
1972 Plymouth Fury III
julianloor_13@hotmail.com
Guayaquil - Ecuador


h  = hammer on
p  = pull off
/  = slide up
\  = slide down
´  = bend
`  = release
´` = bend and release
'  = pre-bend (stretch the string and then play the note)
'` = reverse bend (stretch the string, play the note and release)
PM = palm mute

                      C         Dm             Em         F

E||-----------------|-------------------------|--------------------|
B||-----------------|-----------------8--10---|--------------------|
G||------Drum ------|-----5--7p5-7/9----------|----7p5-7p5-7/9\----|
D||---Introduction--|-------------------------|--------------------|
A||-----------------|-------------------------|--------------------|
E||-----------------|-------------------------|--------------------|

    G          Am          F        C         C           Dm

E||---------------------|------------------|-------------------------|
B||---------------------|------------------|------------------8--10--|
G||------------5--------|-5--5-x-5~--------|--5--7p5--7p5-7/9--------|
D||--7p5-7p5------7-x---|--------------7p5-|-------------------------|
A||---------------------|------------------|-------------------------|
E||---------------------|------------------|-------------------------|

   Em         F      G    Am            F        C

E||----------------|------------------|----------------------|
B||----------------|------------------|----------------------|
G||--7p5-7/9-------|----------5-------|--5--5--5~------5-7-9-|
D||-----------7~---|--7\5--7-----7p5--|--------------7-------|
A||----------------|------------------|----------------------|
E||----------------|------------------|----------------------|

    C         Dm           Em            F            G      Am

E||----------------full--|--full--------------full--|-------------8--|
B||--8--10---13---15´----|-15´--15-13----13--15´----|---10\8--10-----|
G||----------------------|------------14------------|----------------|
D||----------------------|--------------------------|----------------|
A||----------------------|--------------------------|----------------|
E||----------------------|--------------------------|----------------|

     F               C              C            Dm

E||-----------------------------|------------------------|
B||--3/4------------------------|-----------------8--10--|
G||--7´`--7-5---5--7/9----------|-5--7p5--7p5-7/9--------|
D||-----------7---------7p5-7p5-|------------------------|
A||-----------------------------|------------------------|
E||-----------------------------|------------------------|

     Em       F        G     Am           F       C

E||------------------|------------------|-----------------------|
B||------------------|------------------|-----------------8-10--|
G||--7p5-7/9---------|----------5-------|-5--5--------7/9-------|
D||-----------7---\5-|--7\5--7-----7p5--|-----------------------|
A||------------------|------------------|-------(3)-------------|
E||------------------|------------------|-----------------------|

    G/B      G                Csus4        Am

E||-------------------------|------3/4-----------------|
B||-8--10------------13-15--|-13--15´-15----13---full--|
G||------------12/14--------|------------14-----12´----|
D||-------------------------|--------------------------|
A||-------------------------|--------------------------|
E||-------------------------|--------------------------|

    E

E||------------1/2--------------1/2------|
B||-----13-15-15´`-13-15-13-15-15´-15-13-|
G||--14----------------------------------|
D||--------------------------------------|
A||--------------------------------------|
E||--------------------------------------|

    Am            G                F           Em

E||--full-full----15--full-------|------full----------------------|
B||-15´--15´---------15´`--13----|-13--15´--------------13--15-13-|
G||---------------------------14-|----------------12-14-----------|
D||------------------------------|--------------------------------|
A||------------------------------|--------------------------------|
E||------------------------------|--------------------------------|

    Dm                 Em               F          Em

E||--1/2-3/4----------------full------|------full--------------------|
B||-16´-15´--13----13--13--15´--------|-13--15´------------13--15-13-|
G||-------------14--------------12-14-|--------------12-14-----------|
D||-----------------------------------|------------------------------|
A||-----------------------------------|------------------------------|
E||-----------------------------------|------------------------------|

    Dm                     Em                    F      Em
                                                            full
E||--1/2--3/4----------------------------------|-15--17----15´---15-|
B||-16´--15´---13----13---------------13-15-17-|--------------------|
G||---------------14----14-12---12/14----------|--------------------|
D||--------------------------------------------|--------------------|
A||--------------------------------------------|--------------------|
E||--------------------------------------------|--------------------|

    Dm               Em                      G#
     full                                      full  full full  full
E||-15´--15---1/2-----full-13/15-15-18-15--|-18´---18´--18´---18´~~--|
B||----------15'`-13-15´-------------------|-------------------------|
G||----------------------------------------|-------------------------|
D||----------------------------------------|-------------------------|
A||----------------------------------------|-------------------------|
E||----------------------------------------|-------------------------|

    Gm                            Eb        Dm
         full  full full  full
E||-18--18´---18´--18´---18´~~\-|---1/2------------------------------|
B||-----------------------------|--15´-13---11-13-13----11-13----11--|
G||-----------------------------|--------------------12-------12-----|
D||-----------------------------|------------------------------------|
A||-----------------------------|------------------------------------|
E||-----------------------------|------------------------------------|

    C                                C             Dm

E||--------------------------------|---------------------------------|
B||-13----11-13-11-13----13-(13)\--|---------------------------------|
G||----12-------------10-----9--\--|----5--5--x----x-x---------------|
D||--------------------------------|-----------------------5--x-x----|
A||--------------------------------|--3-------x-3--x-x--5-----x-x----|
E||--------------------------------|---------------------------------|

    Em          F                G               Am

E||----------------------------|---------------------------|
B||----------------------------|---------------------------|
G||-------5--x---------5----5--|-5/7--7-x-x--7--7/9--9-9---|
D||------------2/3--3--3h7--3--|-3/5--5-x-x--5--5/7--7-7---|
A||--5/7--7--x-----------------|---------------------------|
E||----------------------------|---------------------------|

    F             C                  C             Dm

E||--------------------------------|---------------------------------|
B||--------------------------------|-----------------------5h6-5-----|
G||-------10--x-x------------------|-----5--x-x--5-x-x-----------7---|
D||-------10--x-x------------10-7--|---------------------------------|
A||--7/8--------------10-8-7-------|--3-----x-x--3-x-x--5--5-----5-x-|
E||----------------8---------------|---------------------------------|

    Em           F               G          Am

E||----------------------------|------------------------|
B||------8-x-x-8-x-x----6--6-6-|-6/8-8-x-x-8-8\5-5-5----|
G||---------------------5--5-5-|-5/7-7-x-x---------5----|
D||-------------------3-3------|------------------------|
A||-5/7--7-x-x-7-x-x-----------|------------------------|
E||----------------------------|------------------------|

    F             C      C         Dm             Em      F
                                                           full  full
E||------------(8)----|-----x-20~--20-17--full-|----17----20´---22´--|
B||-6--6-x-x----------|-----x------------20´---|-20------------------|
G||-5--5-x-x---(5)----|-/12-x------------------|---------------------|
D||-------------------|-----x------------------|---------------------|
A||-------------------|-----x------------------|---------------------|
E||-------------------|-----x------------------|---------------------|

    G
                                 rake         rake
                              |----------| |-----------|
E||-20---17----17-20-17----17--17-----------17-----------------------|
B||---------20----------20-------20p17-full---20p17-full-------------|
G||-----------------------------------19´----------19´---`19---19----|
D||---------------------------------------------------------19----19-|
A||------------------------------------------------------------------|
E||------------------------------------------------------------------|

    F                    C

E||----------------------------------------------------------------|
B||-----3/4---17-20-17--17-----------------------------------------|
G||-17-19´------------19--19-17--17-19-17--------------------------|
D||----------------------------17--------19-17--17-19-17--17-------|
A||-------------------------------------------19--------19---19p17-|
E||----------------------------------------------------------------|

    C                         Dm

E||------------------------------------------------17-20-|
B||------------------------------------------17-20-------|
G||---------------------------------17-17/19-------------|
D||------------------------17-17/19----------------------|
A||-15-----15----15--17/19-------------------------------|
E||-----17----17-----------------------------------------|

    Em             F
     full  full          full
E||-20´---22´---20-20~--22´---|
B||---------------------------|
G||---------------------------|
D||---------------------------|
A||---------------------------|
E||---------------------------|

    G                        Am
     3/4                   full+1/2 full   full+1/2  full
E||-22´--22-20----20--22-20--22´---22´---20---22´---22´--|
B||------------22----------------------------------------|
G||------------------------------------------------------|
D||------------------------------------------------------|
A||------------------------------------------------------|
E||------------------------------------------------------|

    F               C             C
      full+1/2 full
E||-20--22´---22´---20~---------|-------------------------|
B||----------------------pick---|-------------------------|
G||---------------------scrape--|---5--x--x-x-x-x-x--x-x--|
D||-----------------------------|---5--x--x-x-x-x-x--x-x--|
A||-----------------------------|-3----x--x-x-x-x-x--x-x--|
E||-----------------------------|-------------------------|

    C

E||------------------------|-----------------------------|
B||------------------------|-----------------------------|
G||---5--x--x--x--x--------|-----3------3----5-----------|
D||---5--x--x--x--x--------|---5------5--------5---3-----|
A||-3----x--x--x--x---3-5--|-6-----5------3----------5---|
E||------------------------|---------------------5-----6-|


E||------------------------|-----------------------------|
B||------------------------|-----------------------------|
G||-----------3-5----------|-----3------3----5-----------|
D||--3------5--------------|---5------5--------5---3-----|
A||----5---------------3-5-|-6-----5------3----------5---|
E||------3-----------------|---------------------5-----6-|


E||------------------------|-----------------------------|
B||------------------------|-----------------------------|
G||-----------3-5----------|-----3------3----5-----------|
D||--3------5--------------|---5------5--------5---3-----|
A||----5---------------3-5-|-6-----5------3----------5---|
E||------3-----------------|---------------------5-----6-|


E||------------------------|
B||------------------------|
G||-----------3-5----------|
D||--3------5--------------|
A||----5---------------3-5-|
E||------3-----------------|


E||-----------------------------|------------------------|
B||-----------------------------|------------------------|
G||-----3------3----5-----------|-----------3-5----------|
D||---5------5--------5---3-----|--3------5--------------|
A||-6-----5------3----------5---|----5---------------3-5-|
E||---------------------5-----6-|------3-----------------|
||                             |                        |
E||-----------------------------|------------------------|
B||-----------------------------|------------5--6--8-----|
G||-----------------------------|-5-5-5------------------|
D||-----------------------------|------------------------|
A||-----------------------------|------------------------|
E||-----------------------------|------------------------|


E||-----------------------------|------------------------|
B||-----------------------------|------------------------|
G||-----3------3----5-----------|-----------3-5----------|
D||---5------5--------5---3-----|--3------5--------------|
A||-6-----5------3----------5---|----5---------------3-5-|
E||---------------------5-----6-|------3-----------------|
||                             |                        |
E||---------3/4-----------------|------------------------|
B||--------15´-13------------13-|-11---------------------|
G||-----------------------------|------------12----------|
D||-----------------------------|------------------------|
A||-----------------------------|------------------------|
E||-----------------------------|------------------------|


E||-----------------------------|------------------------|
B||-----------------------------|------------------------|
G||-----3------3----5-----------|-----------3-5----------|
D||---5------5--------5---3-----|--3------5--------------|
A||-6-----5------3----------5---|----5---------------3-5-|
E||---------------------5-----6-|------3-----------------|
||                             |                        |
E||--3/4------------------------|------------------------|
B||-15´-13----------------------|-----------5------------|
G||-3/5\3/5---------------------|-5\3/5---5---5----------|
D||-----------------------------|------------------------|
A||-----------------------------|------------------------|
E||-----------------------------|------------------------|
         PM                                           PM
   |-------------|                                  |----|
E||-----------------------------|------------------------|
B||-----------------------------|------------------------|
G||-----3------3----5-----------|-----------3-5----------|
D||---5------5--------5---3-----|--3------5--------------|
A||-6-----5------3----------5---|----5---------------3-5-|
E||---------------------5-----6-|------3-----------------|
||                             |                        |
E||-----------------------------|------------------------|
B||-----------------------------|------------------------|
G||-3/5---5\3/5-----------------|-3/5---5\3/5------------|
D||-----------------------------|------------------------|
A||-----------------------------|------------------------|
E||-----------------------------|------------------------|
                      PM
   |------------------------------------|
E||-----------------------------|------------------------|
B||-----------------------------|------------------------|
G||-----3------3----5-----------|-----------3-5----------|
D||---5------5--------5---3-----|--3------5---5----------|
A||-6-----5------3----------5---|----5-------------------|
E||---------------------5-----6-|------3-----------------|
||                             |                        |
E||-----------------------------|------------------------|
B||-----------------------------|------------------------|
G||-----------------------------|-----------3-5----------|
D||------------------(3)--------|---------5---5----------|
A||-----------------------------|------------------------|
E||-----------------------------|------------------------|

E||-----------|-4~--------------|
B||-----------|-----------------|
G||-----------|-5~------5-------|
D||-----------|-6~------5-------|
A||-----------|-3~------3-------|
E||-----------|-----------------|
comments
print report bad tab
10 comments total. Showing first comments.
0 reply
puddler wrote on May 8 2005, 12:00 am

a most excellent tab. Satriani is a god among men

0 reply
puddler wrote on May 8 2005, 12:00 am

a most excellent tab. Satriani is a god among men

0 reply
puddler wrote on May 8 2005, 12:00 am

oops

I want to post or [tab]
guest
You may want to rate the tab now too:
select rating
Please do not post tabs as comments. Select "correction" instead!