Oops, an error
Loading. Please wait.

Summer Song Bass Tab

ver1
ver1

Whole song

Interactive

More versions @911Tabs.com
3,805 views 12 this week
no commentswrite comment
1 2 3 4 5
not so good
x 1
Autoscroll
+/-
esc
set tempo
stop
Contributor
Hey! There's an official Ultimate Guitar app which is ideal
for learning songs when you're away from computer. Get the app
WARNING: You are trying to view
                                    content from Ultimate-Guitar.com
                                    in an unauthorized application,
                                    which is prohibited.

                                    Please use an official Ultimate
                                    Guitar Tabs application for iPhone,
                                    iPad or Android to access legitimate
                                    chords, guitar, bass, and drum tabs
                                    from Ultimate-Guitar.com database.

                                    Type "ultimate guitar tabs" in Apple
                                    App Store's or Android Market's
                                    search to find the application.
Tried to get it to line up, but failed.
                Summer Song                                   


Bass
 
G||--------------------|--------------------------|------------------------|
D||--------------------|--------------------------|------------------------|
A||-----------------0--|--L--0--0--0--0--0--0--0--|--L--0--0--0--0--0--0--0|
E||--------------------|--------------------------|------------------------|


  E  E  E  E  E  E  E  E     E  E  E  E  E  E  E  E   
--------------------------|--------------------------|
--------------------------|--------------------------|
--L--0--0--0--0--0--0--0--|--L--0--0--0--0--0--0--0--|
--------------------------|--------------------------|


  E  E  E  E  E  E  E  E     E  E  E  E  E  E  E  E   
--------------------------|--------------------------|
--------------------------|--------------------------|
--L--0--0--0--0--0--0--0--|--L--0--0--0--0--0--0--0--|
--------------------------|--------------------------|


  E  E  E  E  E  E  E  E     E  E  E  E  E  E  E  E   
--------------------------|--------------------------|
--------------------------|--------------------------|
--L--0--0--0--0--0--0--0--|--L--0--0--0--0--0--0--0--|
--------------------------|--------------------------|


  E  E  E  E  E  E  E  E     E  E  E  E  E  E  E  E   
--------------------------|--------------------------|
--------------------------|--------------------------|
--L--0--0--0--0--0--0--0--|--L--0--0--0--0--0--0--0--|
--------------------------|--------------------------|


  E  E  E  E  E  E  E  E     E  E  E  E  E  E  E  E   
--------------------------|--------------------------|
--------------------------|--------------------------|
--L--0--0--0--0--0--0--0--|--L--0--0--0--0--0--0--0--|
--------------------------|--------------------------|


  E  E  E  E  E  E  E  E     E  E  E  E  E  E  E  E   
--------------------------|--------------------------|
--------------------------|--------------------------|
--L--0--0--0--0--0--0--0--|--L--0--0--0--0--0--0--0--|
--------------------------|--------------------------|


  E  E  E  E  E  E  E  E     E  E  E  E  E  E  E  E   
--------------------------|--------------------------|
--------------------------|--------------------------|
--L--0--0--0--0--0--0--0--|--L--0--0--0--0--------0--|
--------------------------|-----------------0--3-----|


  E  E  E  E  E  E  E  E     E  E  E  E  E  E  E  E   
--------------------------|--------------------------|
--------------------------|--------------------------|
--L--0--0--0--0--0--0--0--|--L--0--0--0--0--0--0--0--|
--------------------------|--------------------------|


  E  E  E  E  E  E  E  E     E  E  E  E  E  E  E  E   
--------------------------|--------------------------|
--------------------------|--------------------------|
--L--0--0--0--0--0--0--0--|--L--0--0--0--0--0--0--0--|
--------------------------|--------------------------|


  E  E  E  E  E  E  E  E     E  E  E  E  E  E  E  E   
--------------------------|--------------------------|
--------------------------|--------------------------|
--L--0--0--0--0--0--0--0--|--L--0--0--0--0--0--0--0--|
--------------------------|--------------------------|


  E  E  E  E  E  E  E  E     E  E  E  E  E  E  E  E   
--------------------------|--------------------------|
--------------------------|--------------------------|
--L--0--0--0--0--0--0--0--|--L--0--0--0--0--0--0--0--|
--------------------------|--------------------------|


  E  E  E  E  E  E  E  E     E  E  E  E  E  E  E  E   
--------------------------|--------------------------|
--------------------------|--------------------------|
--L--0--0--0--0--0--0--0--|--L--0--0--0--0--0--0--0--|
--------------------------|--------------------------|


  E  E  E  E  E  E  E  E     E  E  E  E  E  E  E  E   
--------------------------|--------------------------|
--------------------------|--------------------------|
--L--0--0--0--0--0--0--0--|-----0--0--0--0--0--2--2--|
--------------------------|--------------------------|


  E  E  E  E  E  E  E  E     E  E  E  E  E  E  E  E   
--------------------------|--------------------------|
--------------------------|--------------------------|
--L--2--0--2--2--2--------|-----------------0-----0--|
--------------------0--3--|--L--3--3--3--------0-----|


  E  E  E  E  E  E  E  E     E  E  E  E  E  E  E  E   
--------------------------|--------------------------|
--------------------------|--------------------------|
--L--0--0--0--0--------0--|--L--0--0--0-----------0--|
-----------------0--3-----|-----------------0--3-----|


  E  E  E  E  E  E  E  E     E  E  E  E  E  E  E  E   
--------------------------|--------------------------|
--------------------------|--------------------------|
--L--0--0--0--0--0--0--0--|--L--0--0--0--0--0--0--0--|
--------------------------|--------------------------|


  E  E  E  E  E  E  E  E     E  E  E  E  E  E  E  E   
--------------------------|--------------------------|
--------------------------|--------------------------|
--L--0--0--0--0--0--0--0--|--L--0--0--0--0--0--0--0--|
--------------------------|--------------------------|


  E  E  E  E  E  E  E  E     E  E  E  E  E  E  E  E   
--------------------------|--------------------------|
--------------------------|--------------------------|
--L--0--0--0--0--0--0--0--|-----0--0--0--0--0--0--0--|
--------------------------|--------------------------|


  E  E  E  E  E  E  E  E     E  E  E  E  E  E  E  E   
--------------------------|--------------------------|
--------------------------|--------------------------|
--L--0--0--0--0--0--0--0--|--L--0--0--0--0--0--0--0--|
--------------------------|--------------------------|


  E  E  E  E  E  E  E  E     E  E  E  E  E  E  E  E   
--------------------------|--------------------------|
--------------------------|--------------------------|
--L--0--0--0--0--0--0--0--|--L--0--0--0--0--0--0--0--|
--------------------------|--------------------------|


  E  E  E  E  E  E  E  E     E  E  E  E  E  E  E  E   
--------------------------|--------------------------|
--------------------------|--------------------------|
--L--0--0--0--0--0--0--0--|--L--0--0--0--0--0--2--2--|
--------------------------|--------------------------|


  E  E  E  E  E  E  E  E     E  E  E  E  E  E  E  E   
--------------------------|--------------------------|
--------------------------|--------------------------|
--L--2--2--2--2--2--------|-----------------0-----0--|
--------------------0--3--|--L--3--3--3--------0-----|


  E  E  E  E  E  E  E  E     E  E  E  E  E  E  E  E   
--------------------------|--------------------------|
--------------------------|--------------------------|
--L--0--0--0--0--------0--|--L--0--0--0--3--0--------|
-----------------0--3-----|--------------------0--3--|


  E  E  S S E  E  E  S S E     E  E  E  E  Q    E  E   
-------------------------2--|-------------------------|
------------0--0--0--2-4----|-------------------------|
--------0-2-----------------|-------------------------|
--3--3----------------------|--5--5--5--5-------0--3--|


  E  E  S S E  E  E  S S E     E  E  E  E  Q    E  E   
-------------------------2--|-------------------------|
------------0--0--0--2-4----|-------------------------|
--------0-2-----------------|-------------------------|
--3--3----------------------|--5--5--5--5-------0--3--|


  E  E  S S E  E  E  S S E     E  E  E  E  Q    E  E   
-------------------------2--|-------------------------|
------------0--0--0--2-4----|-------------------------|
--------0-2-----------------|-------------------------|
--3--3----------------------|-----5--5--5-------0--1--|


  E  E  S S Q    E  S S E     E  E  E  E  Q    E  E   
------------------------0--|-------------------------|
--------------------0-2----|-------------------------|
----------0-3----3---------|-------------------------|
--L--1--3------------------|--0-----3--3----------3--|


  E  E  S S E  E  E  S S E     E  E  E  E  Q    E  E   
-------------------------2--|-------------------------|
------------0--0--0--2-4----|-------------------------|
--------0-2-----------------|-------------------------|
--3--3----------------------|-----5--5--5-------0--3--|


  E  E  S S E  E  E  S S E     E  E  E  E  Q    E  E   
-------------------------2--|-------------------------|
------------0--0--0--2-4----|-------------------------|
--------0-2-----------------|-------------------------|
--3--3----------------------|-----5--5--5-------0--3--|


  E  E  S S E  E  E  S S E     E  E  E  E  Q    E  E   
-------------------------2--|-------------------------|
------------0--0--0--2-4----|-------------------------|
--------0-2-----------------|-------------------------|
--3--3----------------------|-----5--5--5-------0--1--|


  E  E  S S Q    E  S S E     E  E  E  E  Q    E  E   
------------------------0--|-------------------------|
--------------------0-2----|-------------------------|
----------0-3----3---------|-------------------------|
--L--1--3------------------|--0-----3--3----------3--|


  E  E  S S E  E  E  Q       E  E  E  E  E  Q    E     Q    Q    E  E  E  E   
------------------------|-------------------------|------------------------|
----------0--0--0-------|-------------------------|------------------------|
------0-2---------------|--0--0--0--0-------------|------------------------|
3--3--------------------|-----------------2----0--|--L----0----L--0--2--3--|


  Q    H        E  E     E  E  E  Q.     Q       H        Q    E  E   
----------------------|-----------------------|----------------------|
----------------------|-----------------------|----------------------|
-------------------0--|--3--0-----0------0----|----------------------|
--L----3--------3-----|--------3--------------|-------------------3--|


  E  E  E  E  E  E  E  E     E  E  E  E  E  E  E  E   
--------------------------|--------------------------|
--------------------------|--------------------------|
--------------------------|--------------1-----1--3--|
--L--3--3--3--3--3--3--3--|--3--3--3--3-----3--------|


  E  E  E  E  E  E  E  E     E  E  E  Q    E  E  E     E  E  E  E  E  E  E  E   
------------------------|-------------------------|------------------------|
------------------------|-------------------------|------------------------|
L--3--3--3--3--3--3--3--|--3--3--3--3----3--1-----|------------------------|
------------------------|----------------------3--|--L--3--3--3--3--3--3--3|


  E  E  E  E  E  E  E  E     E  E  E  E  E  E  E  E     E  E  E  Q    E  E  E   
------------------------|--------------------------|-----------------------|
------------------------|--------------------------|-----------------------|
------------1-----1--3--|--L--3--3--3--3--3--3--3--|--3--3--3--3----3--1---|
--3--3--3--3-----3------|--------------------------|---------------------3-|


  E  E  E  E  E  E  E  E     E  E  E  E  E  E  E  E   
--------------------------|--------------------------|
--------------------------|--------------------------|
--------------------------|--------------1-----1--3--|
--L--3--3--3--3--3--3--3--|--3--3--3--3-----3--------|


  E  E  E  E  E  E  E  E     E  E  E  Q    E  E  E     E  E  E  E  E  E  E  E   
------------------------|-------------------------|------------------------|
------------------------|-------------------------|------------------------|
-L--3--3--3--3--3--3--3-|--3--3--3--3----3--1-----|------------------------|
------------------------|----------------------3--|--L--3--3--3--3--3--3--3|


  E  E  E  E  E  E  E  E     E  E  E  E  E  E  E  E     E  E  E  Q    E  E  E   
------------------------|--------------------------|-----------------------|
------------------------|--------------------------|-----------------------|
------------1-----1--3--|--L--3--3--3--3--3--3--3--|--3--3--3--3----3------|
--3--3--3--3-----3------|--------------------------|------------------0--2-|


  E  E  E  E  E  E  E  E     E  E  E  E  E  E  E  E   
--------------------------|--------------------------|
--------------------------|--------------------------|
--------------------------|-----------------------0--|
--L-----2--2--2--2--2--2--|-----2--2--0--2--3--4-----|


  E  E  E  E  E  E  E  E     Q    E  E  E  E  E  E     E  E  E  E  E  E  E  E   
------------------------|-------------------------|------------------------|
------------------------|-------------------------|------------------------|
L-----0--0--0--0--0--0--|-------0--0--------------|------------------------|
------------------------|----------------4--3--2--|--L-----2--2--2--2--2--2|


  E  E  E  E  E  E  E  E     E  E  E  E  E  E  E  E   
--------------------------|--------------------------|
--------------------------|--------------------------|
-----------------------0--|--L-----0--0--0--0--0--0--|
-----2--2--0--2--3--4-----|--------------------------|


  E  E  E  E  E  E  E  E     E  E  E  E  E  E  E  E   
--------------------------|--------------------------|
--------------------------|--0--0--0--0--0--0--0--0--|
--0--0--2--2--3-----4--4--|--------------------------|
--------------------------|--------------------------|


  E  E  E  E  E  E  E  E     E  E  E  E  E  E  E  E     E  E  E  Q    E  E  E   
------------------------|--------------------------|-----------------------|
0--0--0--0--3--4--0--0--|--0--0--0--0--0--0--0--0--|--0--0--0--0----0--0---|
------------------------|--------------------------|-----------------------|
------------------------|--------------------------|--------------------0--|


  E  E  E  E  E  E  E  E     E  E  E  E  E  E  E  E   
--------------------------|--------------0--1--------|
--2--2--2--2--2--2--2--2--|--2--2--2--2--------2--2--|
--------------------------|--------------------------|
--------------------------|--------------------------|


  E  E  E  E  E  E  E  E     E  E  E  E  E  E  E  E   
--------------------------|--------------------------|
--2--2--2--2--2--2--2--2--|--2--2--2--2--2--2--2-----|
--------------------------|-----------------------0--|
--------------------------|--------------------------|


  E  E  E  E  E  E  E  E     E  E  E  E  E  E  E  E   
--------------------------|--------------------------|
--------------------------|--------------------------|
--L--0--0--0--0--0--0--0--|-----0--0--0--0--0--0--0--|
--------------------------|--------------------------|


  E  E  E  E  E  E  E  E     E  E  E  E  E  E  E  E   
--------------------------|--------------------------|
--------------------------|--------------------------|
--L--0--0--0--0--0--0--0--|--L--0--0--0--0--0--0--0--|
--------------------------|--------------------------|


  E  E  E  E  E  E  E  E     E  E  E  E  E  E  E  E   
--------------------------|--------------------------|
--------------------------|--------------------------|
--L--0--0--0--0--0--0--0--|-----0--0--0--0--0--0--0--|
--------------------------|--------------------------|


  E  E  E  E  E  E  E  E     E  E  E  E  E  E  E  E   
--------------------------|--------------------------|
--------------------------|--------------------------|
--L--0--0--0--0--0--0--0--|-----0--0--0--0--0--0--0--|
--------------------------|--------------------------|


  E  E  E  E  E  E  E  E     E  E  E  E  E  E  E  E   
--------------------------|--------------------------|
--------------------------|--------------------------|
--L--0--0--0--0--0--0--0--|-----0--0--0--0--0--0--0--|
--------------------------|--------------------------|


  E  E  E  E  E  E  E  E     E  E  E  E  E  E  E  E   
--------------------------|--------------------------|
--------------------------|--------------------------|
--L--0--0--0--0--0--0--0--|-----0--0--0--0--0--2--2--|
--------------------------|--------------------------|


  E  E  E  E  E  E  E  E     E  E  E  E  E  E  E  E   
--------------------------|--------------------------|
--------------------------|--------------------------|
--L--2--2--2--2--2--------|-----------------0-----0--|
--------------------0--3--|--L--3--3--3--------0-----|


  E  E  E  E  E  E  E  E     E  E  E  E  E  E  E  E   
--------------------------|--------------------------|
--------------------------|--------------------------|
--L--0-----0--0--------0--|--L--0--0--0--3--0--------|
-----------------0--3-----|--------------------0--3--|


  E  E  S S E  E  E  S S E     E  E  E  E  Q    E  E   
-------------------------2--|-------------------------|
------------0--0--0--2-4----|-------------------------|
--------0-2-----------------|-------------------------|
--3--3----------------------|--5--5--5--5-------0--3--|


  E  E  S S E  E  E  S S E     E  E  E  E  Q    E  E   
-------------------------2--|-------------------------|
------------0--0--0--2-4----|-------------------------|
--------0-2-----------------|-------------------------|
--3--3----------------------|--5--5--5--5-------0--3--|


  E  E  S S E  E  E  S S E     E  E  E  E  Q    E  E   
-------------------------2--|-------------------------|
------------0--0--0--2-4----|-------------------------|
--------0-2-----------------|-------------------------|
--3--3----------------------|-----5--5--5-------0--1--|


  E  E  S S Q    E  S S E     E  E  E  E  Q    E  E   
------------------------0--|-------------------------|
--------------------0-2----|-------------------------|
----------0-3----3---------|-------------------------|
--L--1--3------------------|--0-----3--3----------3--|


  E  E  S S E  E  E  S S E     E  E  E  E  Q    E  E   
-------------------------2--|-------------------------|
------------0--0--0--2-4----|-------------------------|
--------0-2-----------------|-------------------------|
--3--3----------------------|--5--5--5--5-------0--3--|


  E  E  S S E  E  E  S S E     E  E  E  E  Q    E  E   
-------------------------2--|-------------------------|
------------0--0--0--2-4----|-------------------------|
--------0-2-----------------|-------------------------|
--3--3----------------------|--5--5--5--5-------0--3--|


  E  E  S S E  E  E  S S E     E  E  E  E  Q    E  E   
-------------------------2--|-------------------------|
------------0--0--0--2-4----|-------------------------|
--------0-2-----------------|-------------------------|
--3--3----------------------|-----5--5--5-------0--1--|


  E  E  S S Q    E  S S E     E  E  E  E  Q    E  E   
------------------------0--|-------------------------|
--------------------0-2----|-------------------------|
----------0-3----3---------|-------------------------|
--L--1--3------------------|--0-----3--3----------3--|


  E  E  S S E  E  E  Q       E  E  E  E  E  Q    E     Q    Q.     E  E  E   
-------------------------|-------------------------|-----------------------|
------------0--0--0------|-------------------------|-----------------------|
--------0-2--------------|--0--0--0--0-------------|-----------------------|
--3--3-------------------|-----------------2----0--|--L----0------0--2--3--|


  Q    H        E  E     E  E  E  Q.     Q       E  E  E  E  E  Q    E   
----------------------|-----------------------|-------------------------|
----------------------|-----------------------|-------------------------|
-------------------0--|--3--0-----0------0----|--0--0--0--0-------------|
--L----3--------3-----|--------3--------------|-----------------2----0--|


  Q    Q    E  E  E  E     Q    Q.     E  E  E     E  E  E  H        E   
------------------------|-----------------------|-----------------------|
------------------------|-----------------------|-----------------------|
------------------------|--------------------0--|--3--0-----0--------L--|
--L----0----L--0--2--3--|--L----3------L--3-----|--------3--------------|


  W                   W                   W                   W                 
-----------------|-------------------|-------------------|-----------------|
-----------------|-------------------|-------------------|-----------------|
L----------------|--0----------------|--0----------------|--0--------------|
-----------------|-------------------|-------------------|-----------------|


  W                   W                   W                   W                 
-----------------|-------------------|-------------------|-----------------|
-----------------|-------------------|-------------------|-----------------|
--0--------------|--0----------------|--0----------------|--0--------------|
-----------------|-------------------|-------------------|-----------------|


  E  E  E  E  E  E  E  E     E  E  E  E  E  E  E  E   
--------------------------|--------------------------|
--------------------------|--------------------------|
--0--0--0--0--0--0--0--0--|--0--0--0--0--0--0--0--0--|
--------------------------|--------------------------|


  E  E  E  E  E  E  E  E     E  E  E  E  E  E  E  E   
--------------------------|--------------------------|
--------------------------|--------------------------|
--0--0--0--0--0--0--0--0--|--0--0--0--0--0--0--0--0--|
--------------------------|--------------------------|


  E  E  E  E  E  E  E  E     E  E  E  E  E  E  E  E   
--------------------------|--------------------------|
--------------------------|--------------------------|
--0--0--0--0--0--0--0--0--|--0--0--0--0--0--0--0--0--|
--------------------------|--------------------------|


  E  E  E  E  E  E  E  E     E  E  E  E  E  E  E  E   
--------------------------|--------------------------|
--------------------------|--------------------------|
--0--0--0--0--0--0--0--0--|--0--0--0--0--0--0--0--0--|
--------------------------|--------------------------|


  E  E  E  E  E  E  E  E     E  E  E  E  E  E  E  E   
--------------------------|--------------------------|
--------------------------|--------------------------|
--0--0--0--0--0--0--0--0--|--0--0--0--0--0--0--0--0--|
--------------------------|--------------------------|


  E  E  E  E  E  E  E  E     E  E  E  E  E  E  E  E   
--------------------------|--------------------------|
--------------------------|--------------------------|
--0--0--0--0--0--0--0--0--|--0--0--0--0--0--0--0--0--|
--------------------------|--------------------------|


  E  E  E  E  E  E  E  E     E  E  E  E  E  E  E  E   
--------------------------|--------------------------|
--------------------------|--------------------------|
--0--0--0--0--0--0--0--0--|--0--0--0--0--0--0--0--0--|
--------------------------|--------------------------|


  E  E  E  E  E  E  E  E     E  E  E  E  E  E  E  E   
--------------------------|--------------------------|
--------------------------|--------------------------|
--0--0--0--0--0--0--0--0--|--0--0--0--0--0--0--0--0--|
--------------------------|--------------------------|


  E  E  E  E  E  E  E  E     E  E  E  E  E  E  E  E   
--------------------------|--------------------------|
--------------------------|--------------------------|
--0--0--0--0--0--0--0--0--|--L--0--0--0--0--0--0--0--|
--------------------------|--------------------------|


  E  E  E  E  E  E  E  E     E  E  E  E  E  E  E  E   
--------------------------|--------------------------|
--------------------------|--------------------------|
--L--0--0--0--0--0--0--0--|--L--0--0--0--0--0--0--0--|
--------------------------|--------------------------|


  E  E  E  E  E  E  E  E     E  E  E  E  E  E  E  E   
--------------------------|--------------------------|
--------------------------|--------------------------|
--L--0--0--0--0--0--0--0--|--L--0--0--0--0--0--0--0--|
--------------------------|--------------------------|


  E  E  E  E  E  E  E  E     E  E  E  E  E  E  E  E   
--------------------------|--------------------------|
--------------------------|--------------------------|
--L--0--0--0--0--0--0--0--|--L--0--0--0--0--0--0--0--|
--------------------------|--------------------------|


  E  E  E  E  E  E  E  E     E  E  E  E  E  E  E  E   
--------------------------|--------------------------|
--------------------------|--------------------------|
--L--0--0--0--0--0--0--0--|--L--0--0--0--0--0--0--0--|
--------------------------|--------------------------|


  E  E  E  E  E  E  E  E     E  E  E  E  E  E  E  E   
--------------------------|--------------------------|
--------------------------|--------------------------|
--L--0--0--0--0--0--0--0--|-----0--0--0--0--0--0--0--|
--------------------------|--------------------------|


  E  E  E  E  E  E  E  E     E  E  E  E  E  E  E  E   
--------------------------|--------------------------|
--------------------------|--------------------------|
--L--0--0--0--0--0--0--0--|--L--0--0--0--0--0--0--0--|
--------------------------|--------------------------|


  E  E  E  E  E  E  E  E     E  E  E  E  E  E  E  E   
--------------------------|--------------------------|
--------------------------|--------------------------|
--L--0--0--0--0--0--0--0--|-----0--0--0--0--0--0--0--|
--------------------------|--------------------------|


  E  E  E  E  E  E  E  E     E  E  E  E  E  E  E  E   
--------------------------|--------------------------|
--------------------------|--------------------------|
--L--0--0--0--0--------0--|--L--0--0--0--0--0--0--0--|
-----------------0--3-----|--------------------------|


  E  E  E  E  E  E  E  E     E  E  E  E  E  E  E  E   
--------------------------|--------------------------|
--------------------------|--------------------------|
--L--0--0--0--0--0--0--0--|-----0--0--0--0--0--0--0--|
--------------------------|--------------------------|


  E  E  E  E  E  E  E  E     E  E  E  E  E  E  E  E   
--------------------------|--------------------------|
--------------------------|--------------------------|
--L--0--0--0--0--0--0--0--|-----0--0--0--0--0--0--0--|
--------------------------|--------------------------|


  E  E  E  E  E  E  E  E     E  E  E  E  E  E  E  E   
--------------------------|--------------------------|
--------------------------|--------------------------|
--L--0--0--0--0--0--0--0--|--L--0--0--0--0--0--0--0--|
--------------------------|--------------------------|


  E  E  E  E  E  E  E  E     E  E  E  E  E  E  E  E   
--------------------------|--------------------------|
--------------------------|--------------------------|
--L--0--0--0--0--0--0--0--|--L--0--0--0--0--0--0--0--|
--------------------------|--------------------------|


  E  E  E  E  E  E  E  E     E  E  E  E  E  E  E  E   
--------------------------|--------------------------|
--------------------------|--------------------------|
--L--0--0--0--0--0--0--0--|--L--0--0--0--0--0--0--0--|
--------------------------|--------------------------|


  E  E  E  E  E  E  E  E          
--------------------------|-----||
--------------------------|-----||
--L--0--0--0--0--0--0--0--|-----||
--------------------------|-----||




Duration Legend
---------------
W - whole
H - half
Q - quarter
E - 8th
S - 16th
T - 32nd
X - 64th
. - note dotted
|-n-|  - n-tuplets


Tablature Legend
----------------
L - tied note
x - dead note
g - grace note
(n) - ghost note
> - accentuded note
NH - natural harmonic
AH - artificial harmonic
TH - tapped harmonic
SH - semi harmonic
PH - pitch harmonic
h - hammer on
p - pull off
b - bend
br - bendRelease
pb - preBend
pbr - preBendRelease
brb - bendReleaseBend
\n/ - tremolo bar dip
\n - tremolo bar dive
-/n - tremolo bar Release up
/n\ - tremolo bar inverted dip
/n - tremolo bar return
-\n - tremolo bar Release down
S - shift slide
s - legato slide
/ -  slide into from below or out of upwards
\ -  slide into from above or out of downwards
~ - vibrato
W - wide vibrato
tr - trill
TP - tremolo picking
T - tapping
S - slap
P - pop
< - fade in
^ - brush up
v - brush down
comments
We did not receive enough feedback on this tab! Please rate:
print report bad tab
1 2 3 4 5
I want to post or [tab]
guest
You may want to rate the tab now too:
select rating
Please do not post tabs as comments. Select "correction" instead!