Oops, an error
Loading. Please wait.

Summer Song Tab

ver2
ver2

Whole song

Interactive

More versions @911Tabs.com
35,891 views 43 this week
1 commentread comment
1 2 3 4 5
accurate
x 3
Autoscroll
+/-
esc
set tempo
stop
Contributor
Hey! There's an official Ultimate Guitar app which is ideal
for learning songs when you're away from computer. Get the app
WARNING: You are trying to view
                                    content from Ultimate-Guitar.com
                                    in an unauthorized application,
                                    which is prohibited.

                                    Please use an official Ultimate
                                    Guitar Tabs application for iPhone,
                                    iPad or Android to access legitimate
                                    chords, guitar, bass, and drum tabs
                                    from Ultimate-Guitar.com database.

                                    Type "ultimate guitar tabs" in Apple
                                    App Store's or Android Market's
                                    search to find the application.
ok here is the tab for summer song i didn't tab the echo because there is another tab
that has it well this tab is an easy way to play it so you just have to enjoy it.

-|--------------------------------------------------------------------|
-|---10-----------------------------10--------------------------------|
-|-9----9-11b---9-7-9/11-9-9------9----9-11b--9----7---7/9------------|
-|----------------------------------------------------------5/7-------|
-|--------------------------------------------------------------------|
-|--------------------------------------------------------------------|

-|---------------------------------------------------------------------|
-|---10-----------------------------------------12-14-14b-12-----------|
-|-9----9-11-11b-9/7/9-11-11b-9-7-9/11-9-----14--------------14-14b-14-|
-|---------------------------------------------------------------------|
-|---------------------------------------------------------------------|
-|---------------------------------------------------------------------|

-|----17-------------------------------17------------------------------|
-|-17----17-19b-17-15-17/19-17-17---17----17-19b-17-15--17-------------|
-|---------------------------------------------------------------------|
-|------------------------------------------------------------7/5/7----|
-|------------------------------------------------------(echo-2--------|guiar)
-|---------------------------------------------------------------------|

-|--17---------------------------------------17-19-21-21b-19-17-17b-17-|
-|17---17-19-19b-17-15-17-19-19b-17-15-19-17---------------------------|
-|---------------------------------------------------------------------|
-|---------------------------------------------------------------------|
-|---------------------------------------------------------------------|
-|---------------------------------------------------------------------|

-|/x------------------------------------------------------------------|
-|/x-13b-13br-13-10-----10--------------------------------------------|
-|/x----------------12b----12-10-9-7----------------------------------|
-|/x---------------------------------10b-7----------------------------|
-|/x---------------------------------------10-7-----------------------|
-|/x--------------------------------------------10-8-5-3b-/12---------|

-|----------------------------------------------5\/-----5\/----x\-----|
-|-13b-13b-13-10-----10----------------------------------------x\-----|
-| --------------12b--------------5---7-9-7--------------------x\-----|
-|------------------------3-3-5/7------------------------------x\-----|
-|-------------------------------------------------------------x\-----|
-|-------------------------------------------------------------x\-----|

-|--1 pick------------------------------------------------------------|
-|-13b13b13b-13b-13-10----10------------------------------------------|
-|---------------------12-----11h12-11-9-7-9-11-9-7-7h9-/2-2-2--------|
-|--------------------------------------------------------------------|
-|--------------------------------------------------------------------|
-|--------------------------------------------------------------------|

-|-----------------------------------8--8-10h12-10--10-10-10-10/x-----|
-|-13b-13-10-13-10----10---6--6-8h10----------------10-10-10-10/x-----|
-|-----------------12----------------------------------pm-pm----------|
-|--------------------------------------------------------------------|
-|--------------------------------------------------------------------|
-|--------------------------------------------------------------------|

-|-20b-20-17----17----------------------------------------------------|
-|-----------20----20-17----20b-----------15b------------15-18b-------|
-|-----------------------19------11b-9-13-----9-11-12-16--------------|
-|--------------------------------------------------------------------|
-|--------------------------------------------------------------------|
-|--------------------------------------------------------------------|

-|-----17-20-17----17-------------------------------------------3-6-3--|
-|-20b----------20-----20b(22)-----------------------3----3-4-5----5-5-|
-|------------------------------3--5-0-3-5-0-3-5-3-5---5b--------------|
-|---------------------------------------------------------------------|
-|---------------------------------------------------------------------|
-|---------------------------------------------------------------------|

-|--------------------------------------------------------------------|
-|-3/1---------ahahahah-----------------------------x-----------------|
-|-----3b3b3b3b3b3b3b3b-----------------------------x--0--------------|
-|-----------------------3h5-3-2-3-2----------------x-----------------|
-|-----------------------------------1h3-1-1-0------------------------|
-|---------------------------------------------1-0--------------------|

-|----------------------------------------------------------------------|
-|----------------------------------------------------------------------|
-|-3p0-3p0-0-5p0-0-6p0-6p0-0-7p0-0-10p0-10p0-0-12p0-0-10p0-10p0-0-12p0--|
-|----------------------------------------------------------------------|
-|--fast----------------------------------------------------------------|
-|----------------------------------------------------------------------|

-|----------------------------------------------------------------------|
-|----------------------------------------------------------------------|
-|-15-15p0-15p0-0-12p0-15-15p0-15p0-0-17p0-0-19-20p0-21-21p0-0-19p0-----|
-|----------------------------------------------------------------------|
-|--fast----------------------------------------------------------------|
-|----------------------------------------------------------------------|

-|-------------------------22p15-22p15-15-21p15-15-20p15-20p15----------|
-|---------------------0-0-------------------------------------18-20----|
-|-19-20-20/19h21-21p0--------------------------------------------------|
-|----------------------------------------------------------------------|
-|--fast----------------------------------------------------------------|
-|----------------------------------------------------------------------|

-|-18h20-18----18----17h18p17----------18h20p18----19----17h18p17-------|
-|----------20----20----------20-18-20----------20----20----------------|
-|----------------------------------------------------------------------|
-|----------------------------------------------------------------------|
-|--fast----------------------------------------------------------------|
-|----------------------------------------------------------------------|

-|-20p18----17h18p17----------------------18b---------------------------|
-|-------19----------19p18h19-18p17-------------------------------------|
-|------------------------------------20--------------------------------|
-|----------------------------------------------------------------------|
-|--fast----------------------------------------------------------------|
-|----------------------------------------------------------------------|

   2    1        1    1 1/2
-|----------------------------------------------------------------------|
-|--14---11-------17---17-----------------------------------------------|
-|-14---11—11/8--17---17------14b---------------------------------------|
-|----------------------------------------------------------------------|
-|----------------------------------------------------------------------|
-|----------------------------------------------------------------------|

-|-17b-17-14h17p14----14------------------------------------------------|
-|-----------------17----14-17p14----------------------14-17p14----14---|
-|--------------------------------17p16-17-16-14h16h17----------17------|
-|----------------------------------------------------------------------|
-|----------------------------------------------------------------------|
-|----------------------------------------------------------------------|

-|--------------------17-17-----17-----17-----17-20b—17-----------------|
-|-------------0—20b--------20b----20b----20b-------------20b-----------|
-|-17-16p14-16----------------------------------------------------------|
-|----------------------------------------------------------------------|
-|----------------------------------------------------------------------|
-|----------------------------------------------------------------------|

-|17b-17-14b------------------------------------------------------------|
-|-----------15-13/12---------------------------------------------------|
-|--------------------14-12/11------------------------------------------|
-|------------------------------12-10/12--------------------------------|
-|--------------------------------------10/12-10/9-10p9-7h9p7/5-7/5-2/5-|
-|----------------------------------------------------------------------|
                                                                                         
                                          (ring)
-|-----------------------------------------------16b-17-18-19-20-21-22-|
-|-------9-10-11-12-12-11-12-13-14-15-17-17---19-----------------------|
-|-9-11b---------------------------------------------------------------|
-|---------------------------------------------------------------------|
-|---------------------------------------------------------------------|
-|---------------------------------------------------------------------|

-|--------------------------------------------------------------------|
-|---10-----------------------------10--------------------------------|
-|-9----9-11b---9-7-9/11-9-9------9----9-11b--9----7---7/9------------|
-|----------------------------------------------------------5/7-------|
-|--------------------------------------------------------------------|
-|--------------------------------------------------------------------|

-|---------------------------------------------------------------------|
-|---10-----------------------------------------12-14-14b-12-----------|
-|-9----9-11-11b-9/7/9-11-11b-9-7-9/11-9-----14--------------14-14b-14-|
-|---------------------------------------------------------------------|
-|---------------------------------------------------------------------|
-|---------------------------------------------------------------------|

-|----17-------------------------------17-----------------------------|
-|-17----17-19b-17-15-17/19-17-17---17----17-19b-17-15--17------------|
-|--------------------------------------------------------------------|
-|------------------------------------------------------------7/5/7---|
-|--------------------------------------------------------------------|
-|--------------------------------------------------------------------|

-|--17---------------------------------------17-19-21-21b-19-17-17b-17-|
-|17---17-19-19b-17-15-17-19-19b-17-15-19-17---------------------------|
-|---------------------------------------------------------------------|
-|---------------------------------------------------------------------|
-|---------------------------------------------------------------------|
-|---------------------------------------------------------------------|

-|/x------------------------------------------------------------------|
-|/x-13b-13br-13-10-----10--------------------------------------------|
-|/x----------------12b----12-10-9-7----------------------------------|
-|/x---------------------------------10b-7----------------------------|
-|/x---------------------------------------10-7-----------------------|
-|/x--------------------------------------------10-8-5-3b-/12---------|

-|----------------------------------------------5\/-----5\/----x\-----|
-|-13b-13b-13-10-----10----------------------------------------x\-----|
-| --------------12b--------------5---7-9-7--------------------x\-----|
-|------------------------3-3-5/7------------------------------x\-----|
-|-------------------------------------------------------------x\-----|
-|-------------------------------------------------------------x\-----|

-|--1 pick------------------------------------------------------------|
-|-13b13b13b-13b-13-10----10------------------------------------------|
-|---------------------12-----11h12-11-9-7-9-11-9-7-7h9-/2-2-2--------|
-|--------------------------------------------------------------------|
-|--------------------------------------------------------------------|
-|--------------------------------------------------------------------|

-|-----------------------------------8--8-10h12-10--10-10-10-10/x-----|
-|-13b-13-10-13-10----10---6--6-8h10----------------10-10-10-10/x-----|
-|-----------------12----------------------------------pm-pm----------|
-|--------------------------------------------------------------------|
-|--------------------------------------------------------------------|
-|--------------------------------------------------------------------|

-|-20b-20-17----17--------------\-------------------------------------|
-|-----------20----20-17----20b-\----15b--------18b-----10-12b-10—-10-|
-|-----------------------19-----\--------------------12b---------12---|
-|------------------------------\-------------------------------------|
-|------------------------------\-------------------------------------|
-|------------------------------\2b-0----0-2-3-0----------------------|

-|-----------------------------17-20-17----17-------------------------|
-|-----15b----------18b----20b----------20----------------------------|
-|--------------------------------------------------------------------|
-|--------------------------------------------------------------------|
-|--------------------------------------------------------------------|
-|-2b0------0-2-3-0---------------------------------------------------|

-|-15h17p15/14/12\10/12-12/14-12/10-10/12-14-14b-12h14p12/10/9-10/9---|
-|--------------------------------------------------------------------|
-|--------------------------------------------------------------------|
-|--------------------------------------------------------------------|
-|--------------------------------------------------------------------|
-|--------------------------------------------------------------------|

-|--7/5/3-3/5-7-5h7p5p0-7p9h0-9h10p0-12p10-0-9h10-7p0-5p0-3h5p3p0-----|
-|--------------------------------------------------------------------|
-|--------------------------------------------------------------------|
-|--------------------------------------------------------------------|
-|--------------------------------------------------------------------|
-|--------------------------------------------------------------------|

-|--2h3p2p0-3h5p3p0-2h3p2p0-3h5p3p0-----------------------------------|
-|----------------------------------2h3p2p0-3h5p3p0-5h7p5p0-3h5p3p0---|
-|--------------------------------------------------------------------|
-|--------------------------------------------------------------------|
-|--------------------------------------------------------------------|
-|--------------------------------------------------------------------|

-|------------------------------------------22-sustain----------------|
-|-2-0-3/5--------------------15-sustain------------------------------|
-|-------------17-----------------------------------------------------|
-|--------------------------------------------------------------------|
-|--------------------------------------------------------------------|
-|--------------------------------------------------------------------|

thats all, well then goes the outro solo but that pretty easy to figure out just combine 
other riffs of the song and then fade out enjoy it.

Corrections: Hector Reyes (venistes@hotmail.com)
comments
We did not receive enough feedback on this tab! Please rate:
print report bad tab
1 2 3 4 5
1 comment total.
0 reply
santeen wrote on July 11 2005, 12:00 am

the second time this two lines appear you don't have to play them they are not part of the song

----17-------------------------------17-----------------------------|
-17----17-19b-17-15-17/19-17-17---17----17-19b-17-15--17------------|
--------------------------------------------------------------------|
------------------------------------------------------------7/5/7---|
--------------------------------------------------------------------|
--------------------------------------------------------------------|

--17---------------------------------------17-19-21-21b-19-17-17b-17-
17---17-19-19b-17-15-17-19-19b-17-15-19-17---------------------------
---------------------------------------------------------------------
---------------------------------------------------------------------
---------------------------------------------------------------------
---------------------------------------------------------------------

I want to post or [tab]
guest
You may want to rate the tab now too:
select rating
Please do not post tabs as comments. Select "correction" instead!