Oops, an error
Loading. Please wait.

Super Colossal Tab

ver2
ver2

Whole song

More versions @911Tabs.com
30,908 views 18 this week
18 commentsread comments
1 2 3 4 5
excellent!
x 35
add to favorites launch autoscroll
font size
0
reset
Autoscroll
+/-
esc
set tempo
stop
Contributor
WARNING: You are trying to view
                                    content from Ultimate-Guitar.com
                                    in an unauthorized application,
                                    which is prohibited.

                                    Please use an official Ultimate
                                    Guitar Tabs application for iPhone,
                                    iPad or Android to access legitimate
                                    chords, guitar, bass, and drum tabs
                                    from Ultimate-Guitar.com database.

                                    Type "ultimate guitar tabs" in Apple
                                    App Store's or Android Market's
                                    search to find the application.
w/ whammy (oct) harm.
e|--------------------------------------------------------------------------
b|--------------------------------------------------------------------------
g|------------------------------9-------------------9----11b12-11-9-11-9----
d|-11--9-------------------9-11---11---11--9---------11-----------------11-9
a|-------11-9---------9-11---------------------11-9-------------------------
E|------------12-9----------------------------------------------------------

e|-------------------------------------------------------|
b|-------------------------------------------------------|
g|------------------------------9-------------------9----|
d|-11--9-------------------9-11---11---11--9---------11--|
a|-------11-9---------9-11---------------------11-9------|
E|------------12-9---------------------------------------|

e|-12-9---------------------------------------------------|
b|------12-9------12-9-----------9------------------------|
g|-----------11-9------11-9--------11-9---------11-9------|
d|--------------------------11-9--------11-9--------11-9--|
a|-------------------------------------------11-----------|
E|--------------------------------------------------------|


Rhythm Gtr (play as running 8ths)
e|---------------------|
b|---------------------|
g|---6-----------------|
d|---6-------2-----4---|
a|---4-------2-----4---|
E|-----------0-----2---|

Lead Melody
e|-----------------------------------------------------|
b|-----------------------------------------------------|
g|-----10--11-10-11b13--11-10-----------9----8-8b9-----|
d|-/11------------------------11---9-11---11-------11--|
a|-----------------------------------------------------|
E|-----------------------------------------------------|

e|-----------------------------------------------------|
b|---------------12--12--------------------------------|
g|-----10--11-10--------11-10----------9---------11----|
d|-/11------------------------11--9-11---11--9-11------|
a|-----------------------------------------------------|
E|-----------------------------------------------------|

e|-----------------------------------------------------|
b|-----------------------------------------------------|
g|-----10--11-10-11b13--11-10-----------9----8-8b9-----|
d|-/11------------------------11---9-11---11-------11--|
a|-----------------------------------------------------|
E|-----------------------------------------------------|

e|-----------------------------------------------------|
b|---------------12--12--------------------------------|
g|-----10--11-10--------11-10----------9---------11----|
d|-/11------------------------11--9-11---11--8-11------|
a|-----------------------------------------------------|
E|-----------------------------------------------------|

Rhythm Gtr
e|-----------------------|
b|-----------------------|
g|--------------6--------|
d|---8-----4----6----6---|
a|---8-----4----4----6---|
E|---6-----2---------4---|

e|------------------------------------------------------------------------|
b|------------------------------------------------------------------------|
g|------13-15-13----------------------------------------------------------|
d|--/15----------13b14-13-11-13b14-8--8-/11-13-13b15-13b15-13b15-13-11-13-|
a|------------------------------------------------------------------------|
E|------------------------------------------------------------------------|

e|------------------------------------------------------------------------|
b|--------------------------------------------------------------------12--|
g|------13-15-13-------------------------------------------------------13-|
d|--/15---------13b14-13-11-13b14-8-11-8-/11-13-13b14-13b14-13b14-13-11---|
a|------------------------------------------------------------------------|
E|------------------------------------------------------------------------|

Theme
e|---------------------------------------------------------|
b|-------------------------12------------------------------|
g|---------------------------13--11-9----------------------|
d|--13b14-13b14-13b14-13-11-----------11--11-9-------------|
a|---------------------------------------------11--11-9----|
E|------------------------------------------------------12-|

e|--------------------------------------------------------------------------
b|--------------------------------------------------------------------------
g|------------------------------9-------------------9----11b12-11-9-11-9----
d|-11--9-------------------9-11---11---11--9---------11-----------------11-9
a|-------11-9---------9-11---------------------11-9-------------------------
E|------------12-9----------------------------------------------------------

e|-------------------------------------------------------|
b|-------------------------------------------------------|
g|------------------------------9-------------------9----|
d|-11--9-------------------9-11---11---11--9---------11--|
a|-------11-9---------9-11---------------------11-9------|
E|------------12-9---------------------------------------|

e|-12-9---------------------------------------------------|
b|------12-9------12-9-----------9------------------------|
g|-----------11-9------11-9--------11-9---------11-9------|
d|--------------------------11-9--------11-9--------11-9--|
a|-------------------------------------------11-----------|
E|--------------------------------------------------------|

Solo
Rhythm
e|------------------------------------|
b|------------------------------------|
g|-------6---------6----8---6---------|
d|--8----6----8----6----8---6---------|
a|--8----4----8----4----6---4---------|
E|--6---------6-----------------------|

Solo:
e|--------6-------------------------------------------------------|
b|----------9-6------8-9-6---6------------------------------------|
g|---8b10-------8b10-------8---8-6-8-6---6------------------------|
d|-------------------------------------8---8-6-8-6---6------------|
a|-------------------------------------------------8---8-6-8-6----|
E|-------------------------------------------------------------9\-|

e|-------------------------------------------------------6-----------------|
b|-------------------------------------------------9-6-----9-6-------------|
g|---------------------6-----6-8-8b10-8-6---6-8b10-----8-------8-6---------|
d|----------6---6~-6-8--8--8--------------8------------------------8-6-----|
a|------6-8---8--------------------------------------------------------8-6-|
E|-/6-9--------------------------------------------------------------------|

e|----------------13----------------14b16-15-12----14b15-12---14b15-15-14--|
b|-----14--12-14-----14--14--12--14-------------14----------14-------------|
g|-------------------------------------------------------------------------|
d|-/11---11-----11-----11--11----------------------------------------------|
a|-------------------------------------------------------------------------|
E|-------------------------------------------------------------------------|

e|--16b19-16-12------------------------------|
b|--------------14-12-14-\9-7----------------|
g|---------------------------8b9-6-----------|
d|---------------------------------8-6-8-6---|
a|-----------------------------------------8-|
E|-------------------------------------------|

e|-------6-----6--------------------------------------------------|
b|---------9-6---9-6---6------------------------------------------|
g|--8b10-------------8---8-6-8-6---6------------------------6-----|
d|-------------------------------8---8-6----------------6-8-------|
a|---------------------------------------8-6--------6-8-----------|
E|-------------------------------------------9~-6-9---------------|

e|-------6-9----9-6-9-6-6-----9-6-6---------------|
b|--------------------------------------9---------|
g|--8b10----8b10----------8b10------8b9--8-6------|
d|-------------------------------------------8-6\-|
a|------------------------------------------------|
E|------------------------------------------------|

e|-11-11-11-11-11-11-11-11-11-11-11-11-11-11-11-11-|
b|-8--8--8--9--9--9--8--8--8--8--8--9--9--9--8--8--|
g|-------------------------------------------------|
d|-------------------------------------------------|
a|-------------------------------------------------|
e|-------------------------------------------------|

e|-8-8-8-9-9-9-8-8--------9---9----9---9--9----------|
b|-9-9-9-9-9-9-9-9------9----9----9--9------12-12b14-|
g|------------------9b11---11--11--11----------------|
d|---------------------------------------------------|
a|---------------------------------------------------|
E|---------------------------------------------------|


Rhythm Gtr (play as running 8ths)
e|---------------------|
b|---------------------|
g|---6-----------------|
d|---6-------2-----4---|
a|---4-------2-----4---|
E|-----------0-----2---|

Lead Melody
e|-----------------------------------------------------|
b|-----------------------------------------------------|
g|-----10--11-10-11b13--11-10-----------9----8-8b9-----|
d|-/11------------------------11---9-11---11-------11--|
a|-----------------------------------------------------|
E|-----------------------------------------------------|

e|-----------------------------------------------------|
b|---------------12--12--------------------------------|
g|-----10--11-10--------11-10----------9---------11----|
d|-/11------------------------11--9-11---11--9-11------|
a|-----------------------------------------------------|
E|-----------------------------------------------------|

e|-----------------------------------------------------|
b|-----------------------------------------------------|
g|-----10--11-10-11b13--11-10-----------9----8-8b9-----|
d|-/11------------------------11---9-11---11-------11--|
a|-----------------------------------------------------|
E|-----------------------------------------------------|

e|-----------------------------------------------------|
b|---------------12--12--------------------------------|
g|-----10--11-10--------11-10----------9---------11----|
d|-/11------------------------11--9-11---11--8-11------|
a|-----------------------------------------------------|
E|-----------------------------------------------------|

Rhythm Gtr
e|-----------------------|
b|-----------------------|
g|--------------6--------|
d|---8-----4----6----6---|
a|---8-----4----4----6---|
E|---6-----2---------4---|

e|------------------------------------------------------------------------|
b|------------------------------------------------------------------------|
g|------13-15-13----------------------------------------------------------|
d|--/15----------13b14-13-11-13b14-8--8-/11-13-13b15-13b15-13b15-13-11-13-|
a|------------------------------------------------------------------------|
E|------------------------------------------------------------------------|

e|------------------------------------------------------------------------|
b|--------------------------------------------------------------------12--|
g|------13-15-13-------------------------------------------------------13-|
d|--/15---------13b14-13-11-13b14-8-11-8-/11-13-13b14-13b14-13b14-13-11---|
a|------------------------------------------------------------------------|
E|------------------------------------------------------------------------|

e|--------------------------------------------------------------------------
b|--------------------------------------------------------------------------
g|------------------------------9-------------------9----11b12-11-9-11-9----
d|-11--9-------------------9-11---11---11--9---------11-----------------11-9
a|-------11-9---------9-11---------------------11-9-------------------------
E|------------12-9----------------------------------------------------------

e|-------------------------------------------------------|
b|-------------------------------------------------------|
g|------------------------------9-------------------9----|
d|-11--9-------------------9-11---11---11--9---------11--|
a|-------11-9---------9-11---------------------11-9------|
E|------------12-9---------------------------------------|
(play 3 times)
e|-12-9---------------------------------------------------|
b|------12-9------12-9-----------9------------------------|
g|-----------11-9------11-9--------11-9---------11-9------|
d|--------------------------11-9--------11-9--------11-9--|
a|-------------------------------------------11-----------|
E|--------------------------------------------------------|


comments
print report bad tab
18 comments total. Showing first comments.
0 reply
metal4all wrote on March 30 2006, 01:15 pm

great tab dude. fun song to play

0 reply
UNIe wrote on April 2 2006, 02:19 pm

Great tab, would be awesome if someone put a guitar pro file of this.

0 reply
FreedomFighter wrote on April 28 2006, 04:14 pm

Excellent tab.

Very pentatonicy.

I want to post or [tab]
guest
You may want to rate the tab now too:
select rating
Please do not post tabs as comments. Select "correction" instead!