Oops, an error
Loading. Please wait.

Surfing With The Alien Tab

ver3
ver3

Whole song

Video

More versions @911Tabs.com
18,511 views 39 this week
no commentswrite comment
1 2 3 4 5
excellent!
x 4
Autoscroll
+/-
esc
set tempo
stop
Contributor
Hey! There's an official Ultimate Guitar app which is ideal
for learning songs when you're away from computer. Get the app
WARNING: You are trying to view
                                    content from Ultimate-Guitar.com
                                    in an unauthorized application,
                                    which is prohibited.

                                    Please use an official Ultimate
                                    Guitar Tabs application for iPhone,
                                    iPad or Android to access legitimate
                                    chords, guitar, bass, and drum tabs
                                    from Ultimate-Guitar.com database.

                                    Type "ultimate guitar tabs" in Apple
                                    App Store's or Android Market's
                                    search to find the application.
This is not my tab.
                      Surfing With The Alien(Joe Satriani)
                     G5                             
                      >           PM PM PM PM PM PM  
     H        Q    E  E     E  E  E  E  E  E  E  E   
E||----------------------|--------------------------|
B||----------------------|--------------------------|
G||----------------------|--------------------------|
D||-------------------5--|--L--5--------------------|
A||-------------------5--|--L--5--5--5--5--5--5--5--|
E||-------------------3--|--L--3--3--3--3--3--3--3--|


  N.C       C        C6       C7    C6    C5    C6 C5  
  PM  PM          PM PM PM    PM PM PM PM PM PM PM PM  
  E   E  E  E  E  E  E  E     E  E  E  E  E  E  E  E   
---------------------------|--------------------------|
---------6--5--L-----------|--------------------------|
---------3--5--L-----------|--------------------------|
---------3--5--L--5--7--5--|--8--8--7--3--5--5--7--5--|
------3-----3--L--3--3--3--|--3--3--3--3--3--3--3--3--|
--6------------------------|--------------------------|


  Bb5                                                       
                                         PM PM PM PM PM PM  
  E    E  E   E   E  E   E   E     E  E  E  E  E  E  E  E   
--------------------------------|--------------------------|
--------------------------------|--------------------------|
--2br--L--0----------0----------|--------------------------|
--2br--L--0--/5~--L--0-------5--|--L--5--------------------|
-------------/5---L-----(0)--5--|--L--5--5--5--5--5--5--5--|
-------------------------0---3--|--L--3--3--3--3--3--3--3--|


  PM PM          PM PM PM    PM PM PM PM               
  E  E  E  E  E  E  E  E     E  E  E  E  E  E  E   E   
--------------------------|---------------------------|
--------6--5--L-----------|---------------------------|
--------3--5--L-----------|-----------------0--3b--0--|
--------3--5--L--5--7--5--|--8-----7--3--5--0--3b--0--|
-----3-----3--L--3--3--3--|--3--3--3--3--3------------|
--6-----------------------|---------------------------|



                   >    
 H        Q    E   E    
|------------------------|
|------------------------|
|-------------------12~--|
|------------------------|
|------------------------|
|------------------------|


  Q        E   E   Q      E  E     E   Q    E  Q.     E    
--------------------------------|-------------------------|
--------------------------------|-------------------------|
--L----12g10------10~----12-----|--9b--L----9--L------L\--|
--------------12----------------|-------------------------|
--------------------------------|-------------------------|
--------------------------------|-------------------------|


  E    E  E    E   E  E    Q        Q    Q     Q    E   E    
---------------------------------|--------------------------|
---------------------------------|--------------------------|
---------------------------------|---------------------12~--|
----------8b------10--8b---------|--------------------------|
-----/10------10----------10~----|--L----L\-----------------|
---------------------------------|--------------------------|


  Q        E   E   E   E   E   E      E    Q      E   Q.     E    
----------------------------------|------------------------------|
------------------11b--L----------|--11b--11b--------------------|
--L----12g10--------------12--10--|--------------12~--L------L\--|
--------------12------------------|------------------------------|
----------------------------------|------------------------------|
----------------------------------|------------------------------|


  E    E  E    E   E  E      Q         Q    Q     Q    E   E    
-----------------------------------|---------------------------|
-----------------------------------|---------------------------|
-----------------------------------|----------------------12~--|
----------8b------10--8b-----------|---------------------------|
-----/10------10----------<>10~----|--10----L\-----------------|
-----------------------------------|---------------------------|


                                                   SH              
  Q        E   E     Q      E   E       E   Q      E   Q.     E    
-----------------------------------|------------------------------|
-----------------------------------|------------------------------|
--L----12g10------<>10~----12--12--|--<>9b--L----<>9~--L------L\--|
--------------12-------------------|------------------------------|
-----------------------------------|------------------------------|
-----------------------------------|------------------------------|


  E    S  S   E      E   E  E    Q        Q.     E   Q    E   E    
---------------------------------------|--------------------------|
---------------------------------------|--------------------------|
---------------------------------------|--------------------------|
------------<>8b--------10--8b---------|---------------------17~--|
-----/10-10-------<>10----------10~----|--L------L\---------------|
---------------------------------------|--------------------------|


  Q     E   E   E   E   E   E      E   Q      E   Q.      E    
-------------------------------|------------------------------|
-------------------------------|------------------------------|
---------------15b--L----------|--15--15b---------------------|
--L----15--------------17--15--|-------------17~--L------17\--|
-----------17------------------|------------------------------|
-------------------------------|------------------------------|


  E   E   E   E   E   E    Q       Q.      E   H         
--------------------------------|-----------------------|
---------15------17--15b--------|-----------------------|
---------15------17--15b--------|-----------------------|
-----17------17-----------17----|--L~------L\-----------|
--------------------------------|-----------------------|
--------------------------------|-----------------------|


         SH     SH    SH      SH          SH                       
  Q      Q      E     E  E    E      E    E  E    E   Q    E   E   
----------------------------------|-------------------------------|
----------------------------------|-------------------------------|
----------------------------------|-------------------------------|
--------------<>5b--<>7-----<>7b--|-------------<>5~--L----7p--5--|
-------<>7------------------------|-----<>7-----------------------|
----------------------------------|-------------------------------|


                                                       SH   SH   
  E    H        E  E    E      E    E  E    E  Q       E    E    
----------------------------|-----------------------------------|
----------------------------|-----------------------------------|
----------------------------|-----<>5-----<>5-------------------|
--7br--L--------L--L--<>7b--|--L-------7-------5~----<>7--------|
----------------------------|-----------------------------<>5\--|
----------------------------|-----------------------------------|


         SH    SH   SH                                         
  Q      E     E    E  E  E  E      E  E   E  E   E  E  E  E   
---------------------------------|----------------------------|
---------------------------------|----------------------------|
---------------------------------|----------------------------|
------------------<>5--7-----7b--|------------5~--L--5--7--5--|
-------<>5p--<>3-----------------|-----5p--3------------------|
---------------------------------|----------------------------|


                  \6    
    H.            Q     
-----------------------|
-----------------------|
-----------------------|
--xg7~------------7----|
-----------------------|
-----------------------|


             depress bar before striking note     
    \2                                            
    H        Q.                               E   
-------------------------------------------------|
-------------------------------------------------|
--<>5--------------------------------------------|
-------------------------------------------------|
-------------0-----------------------------------|
----------------------------------------------0--|


  E  E    E  E     E      E  E     E    
---------------------------------------|
---------------------------------------|
----------------<>12b--<>14-----<>14b--|
--------/14----------------------------|
---------------------------------------|
--L------------------------------------|


  E   E   E   E   Q     E    E        H         H         
--------------------------------|------------------------|
--------------------------------|------------------------|
-------------12~--L----14p--12--|--<>14b--------L--------|
-----14b------------------------|------------------------|
--------------------------------|------------------------|
--------------------------------|------------------------|


         NH                       
   E     E     E   E  E  Q.       
--15--------------13--L--L~------|
---------------------------------|
------<>14pbr--L---L--L--L-------|
---------------------------------|
---------------------------------|
---------------------------------|


             SH       SH    SH       SH   
  E   E      E  E     E     E  E     E    
--L\-------------------------------------|
-----------------------------------------|
--L\---------------<>12--<>14-----<>14b--|
---------/<>12--x------------------------|
-----------------------------------------|
-----------------------------------------|


                                         feedback           
                                                  W         
  E   E  E   E   Q     E   E      Q.     E        H         
------------------------------|----------------------------|
------------------------------|----------------------------|
------------12~--L----14--12--|--14------L--------L--------|
-----12-----------------------|----------------------------|
------------------------------|----------------------------|
------------------------------|----------------------------|


                     all taps w/ edge of pick        
                     T                           T   
                     |-------------3-------------|   
  S E.  Q    Q.      S                        S  S   
--------------------22p----------------------21-22h-|
----------------------------------------------------|
--L-------------------------------------------------|
----------------------------------------------------|
----------------------------------------------------|
----------------------------------------------------|


      T      T      T      T      T      T      T      T      T      T
   |------5------|  |---6--|   |---6--|  |---6--|   |---6--|  |------7
   S  S   S  S   S  S   S  S   S  S   S  S   S  S   S  S   S  S   S  S
--21-22p-21-22p-21-22p-21-22p-21-22p-21-22p-21-22p-21-22p-21-22p-21-22
----------------------------------------------------------------------
----------------------------------------------------------------------
----------------------------------------------------------------------
----------------------------------------------------------------------
----------------------------------------------------------------------


      T      T      T      T          T      T      T      T      T   
   |---6--|  |---6--|   |--|    |--6--|   |---6--|  |---6--|   |---6--
   S  S   S  S   S  S   S  E    S  S  S   S  S   S  S   S  S   S  S   
--19-22p-19-22p-19-22p-21-21h--22-21-22p-17-22p-17-22p-17-22p-19-22p-1
----------------------------------------------------------------------
----------------------------------------------------------------------
----------------------------------------------------------------------
----------------------------------------------------------------------
----------------------------------------------------------------------


      T      T      T      T      T      T      T      T      T      T
   |---12-|  |---12-|   |---12-|  |---12-|   |---12-|  |---12-|   |---
   S  S   S  S   S  S   S  S   S  S   S  S   S  S   S  S   S  S   S  S
--16-22p-16-22p-17-22p-17-22p-16-22p-16-22p-14-22p-14-22p-14-22p-13-22
----------------------------------------------------------------------
----------------------------------------------------------------------
----------------------------------------------------------------------
----------------------------------------------------------------------
----------------------------------------------------------------------


      T      T      T      T      T     T     T  T     T             
   |---12-|  |---12-|   |---12-|  |----12--|  |--3--|                
   S  S   S  S   S  S   S  S   S  S  S  T  T  S  S  S  S  S E   S S  
--14-22p-13-22p-14-22p-13-22p-13-21p-9-21p-9-21-21p-9-21p-7---------|
------------------------------------------------------------7S--x-x-|
----------------------------------------------------------------x-x-|
--------------------------------------------------------------------|
--------------------------------------------------------------------|
--------------------------------------------------------------------|


  E  E    E  S  S  S  S  T   T  T  T  S  S  S S   
--x--9br--L--Lh-7-10p-7h-9h-10p-9p-7-------------|
--x----------------------------------10p-9p-7----|
--x-------------------------------------------9h-|
-------------------------------------------------|
-------------------------------------------------|
-------------------------------------------------|


              |-3-|      |--3-|                  
  S  S  T  S. S S S S S  S  S S S T T  S  S S S  
------------------------------------------------|
------------------x-----------------------------|
--7h-9p-7s-6--7-9-----6h-7p-6-------6h-7p-6-----|
--------------------9---------9---9---------9---|
------------------------------------------------|
------------------------------------------------|


  |----5----|  |-----5----|                 |--3--|   
  S  S  S S S  S  S  S  S S S  S  S S S  S  S  S  S   
-----------------------------------------------------|
-----------------------------------------------------|
-----------------------------------------------------|
--6h-7p-6---6h-7h-9p-7p-6---6h-7p-6------------------|
----------9---------------9---------9-7p-0h-5h-7p-4s-|
-----------------------------------------------------|


           >                          PM PM PM                  
  Q     E  E   E  E    E    E      E  E  E  E    Q     E    E   
--------------------------------|------------------------------|
--------------------------------|------------------------------|
--------------------------------|------------------------------|
--------------------------------|--x---------------------------|
--2s----4--4~--L--4s--11\-------|--x--6--7--6--<>4~----6--<>5--|
---------------------------(7)--|------------------------------|


  E  E  E  E  E    E    E    E    
---------------------------------|
---------------------------------|
---------------------------<>6~--|
---------------------------------|
--6--7--7--6-----<>6--<>7--------|
---------------------------------|


  E  E    E   E    E     E     E   E   
--------------------------------------|
--------------------------------------|
--L-----<>6b-----<>6b--<>6b--<>6b-----|
-----8--------8--------------------8--|
--------------------------------------|
--------------------------------------|


                                                       PM         PM  
    E   E  E    E   E   E     E   E     Q      E   E   Q      E   E   
-------------------------------------|-------------------------------|
-------------------------------------|-------------------------------|
--<>6b-----6---------------------12--|--L~----13-----------------12--|
--------8-----<>6~--L--(0)S--11------|------------12--11~----13------|
-------------------------------------|-------------------------------|
-------------------------------------|-------------------------------|


   Q      E   E  E   T     T S Q     
------------------------------------|
--------------------14brb--L---L----|
--12~----13------x------------------|
-------------11--x------------------|
------------------------------------|
------------------------------------|


                            |---3--|             
  E   E   T  T   E.   S  S  S   S  S  E.   T  T  
---------11-------------11----------------------|
--L--14-----11h-14b---L----14p-11-14b-L~---L-11-|
------------------------------------------------|
------------------------------------------------|
------------------------------------------------|
------------------------------------------------|


                                   \2       
   |---3--|                                 
   S  S   S  S  S   S S   E    E   E  Q     
--11---------------------------------------|
-----14p-11-14-14br-L-Ls-20s--22b--L-------|
-------------------------------------------|
-------------------------------------------|
-------------------------------------------|
-------------------------------------------|


  E  E  S  S S S S  S S  S  S  S S  S  
--------------------------------------|
--------------------------------------|
--------------------------------------|
-----7--8p-4-4-4-8p-4-7p-4s-3s-4-7s-8-|
--------------------------------------|
--------------------------------------|


  S  S  S  S S  S S  S S  S  S  S S  S S S  
-------------------------------------------|
-------------------------------------------|
---------------------------------------8---|
--7p-4s-3s-4-7p-4-8p-4-7p-4s-3s-4-7p-4-----|
-------------------------------------------|
-------------------------------------------|


  S  S S  S E  S  S E  S  S S S E     
-------------------------------------|
-------------------------------------|
------------8------------------------|
--8p-4-7p-4----7p-4-8--7p-4-8--------|
------------------------------0-6br--|
-------------------------------------|


  Q    E  E   E  E    E    E     
--------------------------20br--|
---------------------(0)--------|
---------------------(0)--------|
--------------------------------|
--L----L--L~--L--L/-------------|
--------------------------------|


           all vibratos w/trem. bar for 2 bars                
  Q    E   E                                  E  E  E   E     
--L----L--20br~-------------------------------L--L--L--20b~--|
-------------------------------------------------------------|
-------------------------------------------------------------|
-------------------------------------------------------------|
-------------------------------------------------------------|
-------------------------------------------------------------|


                                               /2\           
  E  E    E    E  E  E   E     E     Q.        E  Q    Q     
--L--L--(20)b--L--L--x\-----------|-------------------------|
---------------------x\-----------|-------------------------|
-------------------------0--<>14--|--L------<>14--L----L----|
----------------------------------|-------------------------|
----------------------------------|-------------------------|
----------------------------------|-------------------------|


  E  Q    E  E  E  E  E     E   E   Q     Q    Q      
-------------------------|---------------15----L~----|
-------------------------|---------------------------|
--L--L----L--------------|-----14b--L----------------|
-------------x--x--x-----|---------------------------|
-------------x--x--x-----|---------------------------|
-------------x--x--x--0--|---------------------------|


  E   E     S S  E  E   E   E   E      E    E   Q     E   E   E   E   
--L-------------13--L--------------|-----------------12--------------|
-----------------------15------15--|-----------15------------15--12--|
-----14pbr--L-L------------14------|--14b--12--14--------14----------|
-----------------------------------|---------------------------------|
-----------------------------------|---------------------------------|
-----------------------------------|---------------------------------|


                      depress bar before striking note          
                \2                                         >    
   E    E   E   E  E  E                                E   E    
---------------------------------------------------------------|
---------------------------------------------------------------|
--14p--12-------------------------------------------------12~--|
---------------------------------------------------------------|
-----------14--10--L-------------------------------------------|
----------------------0--------------------------------L-------|


  Q        E   E   Q      E  E     E   Q      E   Q.     E    
--------------------------------|----------------------------|
--------------------------------|----------------------------|
--L----12g10------10~----12--x--|--9b--L----<>9~--L------L\--|
--------------12----------------|----------------------------|
--------------------------------|----------------------------|
--------------------------------|----------------------------|


                             W                                
  E    S  S E    E   E  E    Q       Q    Q     Q    E   E    
----------------------------------|--------------------------|
----------------------------------|--------------------------|
----------------------------------|---------------------12~--|
------------8b------10--8b--------|--------------------------|
-----/10-10-----10----------10----|--L----L\-----------------|
--x-------------------------------|--------------------------|


  Q        E   E   E   E   E   E      E    E    E   E   Q    Q      
----------------------------------|--------------------------------|
------------------11b--L----------|--11b--11b--11------------------|
--L----12g10--------------12--10--|----------------12~--L----L\----|
--------------12------------------|--------------------------------|
----------------------------------|--------------------------------|
----------------------------------|--------------------------------|


  E    E  E   E   E  E     E    E       Q     Q    Q    E   E    
------------------------------------|---------------------------|
------------------------------------|---------------------------|
------------------------------------|----------------------12~--|
----------8------10--8--------------|---------------------------|
--x--/10-----10---------8g10~--10~--|--10\----------------------|
------------------------------------|---------------------------|


  Q        E   E     Q      E  E       E   Q    E  Q.     E    
----------------------------------|---------------------------|
----------------------------------|---------------------------|
--L----12g10------<>10~----12--0--|--<>9b--L----9--L------L\--|
--------------12------------------|---------------------------|
----------------------------------|---------------------------|
----------------------------------|---------------------------|


   PM                                                              
   E     E  E    E   E  E    E   E       Q     Q    Q    E    E    
-------------------------------------|----------------------------|
-------------------------------------|----------------------------|
-------------------------------------|----------------------------|
------------8b------10--8b-----------|----------------------/17~--|
--(0)S--10------10----------10--10~--|--10\-----------------------|
-------------------------------------|----------------------------|


  Q        E   E   Q      E   E      E    Q      E  E.  S  Q     
---------------------------------|------------------------------|
---------------------------------|------------------------------|
------------------15b------------|--15b--15b--------------------|
--L----17g15-------------17--15--|--------------17--L---L/------|
--------------17-----------------|------------------------------|
---------------------------------|------------------------------|


  E   E   E   E   E   E   E   E       Q     Q     H         
----------------------------------|------------------------|
---------15------17--15-----------|------------------------|
---------15--17--17---------------|------------------------|
--x--17------17----------17--17~--|--17~----L\-------------|
----------------------------------|------------------------|
----------------------------------|------------------------|


              SH    SH    SH      SH   
  Q     E     E     E     E  E    E    
--------------------------------------|
--------------------------------------|
--------------------------------------|
------------------<>5b--<>7-----<>7b--|
-------/7-----------------------------|
-----------<>(8)----------------------|


       SH    SH    SH                                          
  E    E     E     E   Q    E   E       H         Q.       E   
-----------------------------------|--------------------------|
-----------------------------------|--------------------------|
-----------------------------------|--------------------------|
-----------------<>5~--L----7p--5--|--<>7b--------L------7g8--|
-----<>7---------------------------|--------------------------|
----------<>(8)--------------------|--------------------------|


                         PM                               
  E  E  E    E  Q     E  E     Q     E  E  E   E  E  E    
----------------------------|----------------------------|
----------------------------|----------------------------|
-----5----------------------|----------------------------|
--L-----7--<>7--5~----7--5--|--------------5b--7-----7b--|
----------------------------|-------/5--x----------------|
----------------------------|----------------------------|


  E  E   E  E   Q    E  E     S E.   H        E   E   
---------------------------|-------------------------|
---------------------------|-------------------------|
---------------------------|-------------------------|
------------5~--L----7--5--|--7-7~---L--------7S--x--|
-----7p--5-----------------|-------------------------|
---------------------------|-------------------------|


              \6            
      E    E  H.            
---------<>7--L------------|
--xg<>7--------------------|
---------------------------|
---------------------------|
---------------------------|
---------------------------|


             SH       SH     SH        SH   
  E   E      E  E     E      E   E     E    
-------------------------------------------|
--x\---------------------------------------|
--x\---------------<>12b--<>14b-----<>14b--|
---------/<>14-----------------------------|
-------------------------------------------|
------0------------------------------------|


        SH       SH          SH     SH                        
  E     E  E     E   Q       E      E      W                  
---------------------------------------|---------------------|
---------------------------------------|---------------------|
--------------<>12~--L----<>14p--<>12--|--14b----------------|
-----<>14------------------------------|---------------------|
---------------------------------------|---------------------|
---------------------------------------|---------------------|


   E   E    Q     Q        E   E      Q     Q     E   E  E   E    
-----------------------------------|-----------------------------|
--15-------------13----------------|-----------------------------|
------14br--L----------14g12--14b--|--L----------12--14-----14b--|
-----------------------------------|-------12--------------------|
-----------------------------------|-----------------------------|
-----------------------------------|-----------------------------|


                                       /1\                           
                                       |---3--|   |--3--|  |--3--|   
  E   E  E   E   Q     E   E      Q    E   E  E   E  E  E  E  E  E   
------------------------------|-------------------------------------|
------------------------------|-------------------------------------|
------------12~--L----14--12--|--14----L---L--L---L--L--L--L--L--L--|
-----12-----------------------|-------------------------------------|
------------------------------|-------------------------------------|
------------------------------|-------------------------------------|


                         jet plane FX                          
  \6                                                           
  E  E  Q    H           W                   W                 
----------------------|-------------------|-------------------|
----------------------|-------------------|-------------------|
--L-------------------|-------------------|-------------------|
----------------------|-------------------|-------------------|
----------------------|-------------------|-------------------|
----------------------|-------------------|-------------------|


  W                   S  S S  S S S  S S S  S S  S S S  S S  
-------------------|--7p-3-7p-3---7p-3---7p-3-7p-3---7p-3---|
-------------------|------------6------6-----------6------6-|
-------------------|----------------------------------------|
-------------------|----------------------------------------|
-------------------|----------------------------------------|
-------------------|----------------------------------------|


  S  S S  S S S  S S S  S S  S S S  S S  
--7p-3-7p-3---7p-3---6p-3-6p-3---6p-3---|
------------6------5-----------5------6-|
----------------------------------------|
----------------------------------------|
----------------------------------------|
----------------------------------------|


  S  S S  S S S  S S S  S S  S S S  S S  
--6p-3-6p-3---6p-3---6p-3-6p-3---6p-3---|
------------5------5-----------5------5-|
----------------------------------------|
----------------------------------------|
----------------------------------------|
----------------------------------------|


  S  S S  S S S  S S S  S S  S S S  S S  
--6p-3-6p-3---6p-3---7p-3-7p-3---7p-3---|
------------5------5-----------6------6-|
----------------------------------------|
----------------------------------------|
----------------------------------------|
----------------------------------------|


  S  S S S  S S S  S S S  S S S  S S S   
--8p-3---7p-3---8p-3---7p-3---8p-3---7h-|
-------6------3------6------6------6----|
----------------------------------------|
----------------------------------------|
----------------------------------------|
----------------------------------------|


  S S S  S S S  S S S  S S S  S S S S     
--3---8p-3---6p-3---6p-3---6p-3----------|
----6------6------5------5------5-3-6brb-|
-----------------------------------------|
-----------------------------------------|
-----------------------------------------|
-----------------------------------------|


  Q    S S S S  S S E     Q     
-----------3-------------------|
--L----L-L---6p-3-6------------|
--------------------5pbr--L----|
-------------------------------|
-------------------------------|
-------------------------------|


                       Dive over current note duration 
                       \2/                             
  Q    E  E   Q    E   E                               
------------------------------------------------------|
----------------------17h-----------------------------|
--L----3----------------------------------------------|
----------5~--L---------------------------------------|
------------------------------------------------------|
------------------------------------------------------|


   \2/ \2/  \2/ \2/  \2/ \2/  \2/       
   E   E    E   E    E   E    E    E    
---------------------------------------|
--18---Lp--17---Lp--15---Lh--17p--15h--|
---------------------------------------|
---------------------------------------|
---------------------------------------|
---------------------------------------|


               \2/W       \2/  
   E    E  E   E  Q.      E    
------------------------------|
--18p--17----------------17h--|
-----------x--15--L-----------|
------------------------------|
------------------------------|
------------------------------|


   \2/ \2/  \2/ \2/  \2/ \2/  \2/       
   E   E    E   E    E   E    E    E    
---------------------------------------|
--18---Lp--17---Lp--15---Lh--17p--15h--|
---------------------------------------|
---------------------------------------|
---------------------------------------|
---------------------------------------|


               \2/W       \2/  
   E    E  E   E  Q.      E    
------------------------------|
--18p--17----------------17h--|
-----------x--15--L-----------|
------------------------------|
------------------------------|
------------------------------|


   \2/ \2/  \2/ \2/  \2/ \2/  \2/       
   E   E    E   E    E   E    E    E    
---------------------------------------|
--18---Lp--17---Lp--15---Lh--17p--15h--|
---------------------------------------|
---------------------------------------|
---------------------------------------|
---------------------------------------|


               \2/W       \2/     \2/ \2/  \2/     \2/ \2/ /2  -\2    
   E    E  E   E  Q.      E       E   E    E   E   E   E   E   S   S  
------------------------------|--------------------------------------|
--18p--17----------------17h--|--18---Lp--17------15---L--18b--L---L-|
-----------x--15--L-----------|---------------17---------------------|
------------------------------|--------------------------------------|
------------------------------|--------------------------------------|
------------------------------|--------------------------------------|


  \6                  >                       
  Q.     Q.      E    E     W                 
---------------------18--|--L----------------|
--L------------------17--|--L----------------|
-------------------------|-------------------|
-------------------------|-------------------|
---------x---------------|-------------------|
---------x------(0)------|-------------------|


              >                                          
  E   E   E   E    Q    E   E     Q.      E  Q     Q     
--Lb--L--15----------------18--|--L------18--L----18----|
--L---L------18b~--L-----------|---------17--L----------|
-------------------------------|------------------------|
-------------------------------|------------------------|
-------------------------------|------------------------|
-------------------------------|------------------------|


              >                    
   Q      E   E    Q    E   S   S  
--18~----15----------------17p-15-|
-------------18b~--L-------17p-15-|
----------------------------------|
----------------------------------|
----------------------------------|
----------------------------------|


   E.    S   S  S  E   S  S   S  S  E.    S  
--18b---15-----15-18b--L-15-----15----------|
--17b---15h-17-15-17b--L-15h-17----17b---15-|
--------------------------------------------|
--------------------------------------------|
--------------------------------------------|
--------------------------------------------|


   S  S  E   S  S  S  S  E.    S  S  S  E    
--------18b--L-------15----------18----18b--|
--17-15-17b--L-15-17----17b---15----17-17b--|
--------------------------------------------|
--------------------------------------------|
--------------------------------------------|
--------------------------------------------|


  S  S  S  S  E.    S  S  S  E   S  S  S  S  
--L-------15-18b------------18b--L-15-17-15-|
--L-15-17----17b---15-17-15-17b--L-15-17-15-|
--------------------------------------------|
--------------------------------------------|
--------------------------------------------|
--------------------------------------------|


   E.    S  E   E    E   E   E  E    
--18b------18--18b---L--15\---------|
--17b---15-17--17b---L--------------|
--------------------------------5b--|
------------------------------------|
------------------------------------|
------------------------------------|


       Dive over current note duration                   
       \1/                             \1/ \1/           
  Q    E                               E   E   E  E  E   
-----------------------------------------------3--3--6--|
--------------------------------------------------3--6--|
--L----L-------------------------------L---L------------|
--------------------------------------------------------|
--------------------------------------------------------|
--------------------------------------------------------|


  E   E  E  S S E  E   E  E     E   E  E  E  E   E  E  E   
-----------------------------|----------------------------|
--------------5-L--3b--5--3--|--Lb--L--5--3--5b--5--3--5--|
--5b--L--3----5-L--3b--5--3--|--Lb--L--5--3--5b--5--3--5--|
------------5----------------|----------------------------|
-----------------------------|----------------------------|
-----------------------------|----------------------------|


                     NH                                     
  E   E  E   E  E    E   E  E     E  E  E  E  E    Q    E   
-------------------------------|---------------------------|
--3b-----3b-----------------6--|--8--6--6--6--6---------7--|
--3b--L--3b--5--L-------/7--7--|--7--7--7--7--7--<>7----6--|
------5------5--L--<>5---------|---------------------------|
-------------------------------|---------------------------|
-------------------------------|---------------------------|


  >                     >                                 
  Q     E  E   E  E  E  E      E  E  E   E  E  E   E  E   
----------------------------|----------------------------|
--7\-------5~--L-----3------|----------------------------|
--6\-------5~--L-----3--3~--|--L--5--3b--L--5--3b--L-----|
--------5---------5---------|------------5---------5--5--|
----------------------------|----------------------------|
----------------------------|----------------------------|


                            T      T   
                            |---3--|   
  E  E  E    E   E  E   E   S   S  S   
---------------------------13p-10-13h-|
--------------------------------------|
--------------------------------------|
--3--------3g5~--L--L\----------------|
-----5--3-----------------------------|
--------------------------------------|


      T      T      T      T      T      T      T      T      T      T
   |---6--|  |---6--|   |---6--|  |---6--|   |---6--|  |---6--|   |---
   S  S   S  S   S  S   S  S   S  S   S  S   S  S   S  S   S  S   S  S
--10-13p-10-13p-10-13p-10-13p-10-13p-10-13p-10-13p-10-13p-10-13p-10-13
----------------------------------------------------------------------
----------------------------------------------------------------------
----------------------------------------------------------------------
----------------------------------------------------------------------
----------------------------------------------------------------------


      T      T      T  T      T     T     T     T     T     T     T   
   |---6--|  |---6--|  |---6--|  |--6--|  |--6--|  |--6--|  |--6--|  |
   S  S   S  S   S  S  S   S  S  S  S  S  S  S  S  S  S  S  S  S  S  S
--10-13p-10-13p-10-13-13p-10-12p-8-12p-8-12p-8-12p-8-12p-8-12p-8-13p-6
----------------------------------------------------------------------
----------------------------------------------------------------------
----------------------------------------------------------------------
----------------------------------------------------------------------
----------------------------------------------------------------------


   T     T     T                                     
   |--6--|  |--6--|  |-6-| |-6-| |-3-|               
   S  S  S  S  S  S  S S S S S S S S S    E   E  E   
--10p-6-10p-6-10p-6-10-6-8-3-5-8-5-7-8s-(17)--------|
----------------------------------------------------|
----------------------------------------------x-----|
----------------------------------------------x-----|
----------------------------------------------------|
-------------------------------------------------0--|


     Q      E     E   E  E    E   E      Q    Q     E  E  E   E   
--------------------------------------|--------------------------|
----------------/18~--L--L\-----------|----------------6---------|
--2g17S----(0)--------------------5b--|--L----L~----L-----5b--L--|
-----------(0)------------------------|--------------------------|
--------------------------------------|--------------------------|
-----------------------------(0)------|--------------------------|


  E  Q     E  E   E  E    E      E  E    E    S S E  E   E  E   
------------------------------|--------------------------------|
--6--------6---------6--------|-----6-------------6---------6--|
-----5b-------5b--L-----<>5b--|--L-----<>5br--L-L----5b--L-----|
------------------------------|--------------------------------|
------------------------------|--------------------------------|
------------------------------|--------------------------------|


  E  E  E  E  E  E  E     E   
--------------------3-----0--|
--------6--------3-----------|
--5--L-----5--L--------5g17--|
-----------------------------|
-----------------------------|
-----------------------------|


   Bend both strings w/3rd finger                           
   E                              E   E   E   E   Q     E   
---------------------------------15--18b-----18--18b----L--|
--15---------------------------------18b--L--18--18b----L--|
-----------------------------------------------------------|
-----------------------------------------------------------|
-----------------------------------------------------------|
-----------------------------------------------------------|


                  >            >       
   E   S   S  E   E    E   E   Q       
--15---------15-----------15----------|
------18p-15-----18b~--L------18b~----|
--------------------------------------|
--------------------------------------|
--------------------------------------|
--------------------------------------|


       >           >           >     
   E   Q       E   Q       E   E     
--15----------15----------15--------|
------18b~--------18b~--------18b~--|
------------------------------------|
------------------------------------|
------------------------------------|
------------------------------------|


                               \2/  
  E   E   E   E    E  E   E    E    
-----15------------------(0)-------|
--L------18--18b~--L--L-------17h--|
-----------------------------------|
-----------------------------------|
-----------------------------------|
-----------------------------------|


   \2/ \2/  \2/ \2/  \2/ \2/  \2/       
   E   E    E   E    E   E    E    E    
---------------------------------------|
--18---Lp--17---Lp--15---Lh--17p--15h--|
---------------------------------------|
---------------------------------------|
---------------------------------------|
---------------------------------------|


               \3/W       \2/  
   E    E  E   E  Q.      E    
------------------------------|
--18p--17----------------17h--|
-----------x--15--L-----------|
------------------------------|
------------------------------|
------------------------------|


   \2/ \2/  \2/ \2/  \2/ \2/  \2/       
   E   E    E   E    E   E    E    E    
---------------------------------------|
--18---Lp--17---Lp--15---Lh--17p--15h--|
---------------------------------------|
---------------------------------------|
---------------------------------------|
---------------------------------------|


               \3/W       \2/  
   E    E  E   E  Q.      E    
------------------------------|
--18p--17----------------17h--|
-----------x--15--L-----------|
------------------------------|
------------------------------|
------------------------------|


   \2/ \2/  \2/ \2/  \2/ \2/  \2/       
   E   E    E   E    E   E    E    E    
---------------------------------------|
--18---Lp--17---Lp--15---Lh--17p--15h--|
---------------------------------------|
---------------------------------------|
---------------------------------------|
---------------------------------------|


               depress bar fully before striking note             
               \3/                                   W        /2  
   E    E  E   E                                     Q.       E   
-----------------------------------------------------------------|
--18p--17--------------------------------------------------------|
-----------x--15-------------------------------------L------<>0--|
-----------------------------------------------------------------|
-----------------------------------------------------------------|
-----------------------------------------------------------------|


          -\2                  \6                
  Q.      E  Q.     E     Q    Q    Q     E  E   
-----------------------|------------------------|
-----------------------|------------------------|
--L------12--L------L--|--L----0-------------0--|
-----------------------|-------0-------------0--|
-----------------------|------------x-----------|
-----------------------|------------x----\0-----|


   PM PM   PM PM PM PM PM PM                              PM  
   E  E    E  E  E  E  E  E     E   E   E  E   E  E   E   E   
-----------------------------|-------------------------------|
------6S--10--6-----3--5--3--|--5b--5b--3--5~--L--5--(0)--5--|
--/7--7S--10--7--7--3--5--3--|--5b--5b--3--5~--L--5-------5--|
--/9-------------9-----------|-------------------------------|
-----------------------------|-------------------------------|
-----------------------------|-------------------------------|


  PM PM PM PM PM PM PM PM                        PM    PM  
  E  E  E  E  E  E  E  E     E    E  E    E   E  E  E  E   
--------------------------|-------------------------------|
--6--6--5--3--3--3--5--3--|--5br--L-----------------5--6--|
--7--7--5--3--3--3--5--3--|--5br--L--3--------------5--7--|
--------------------------|-------------<>5~--L--5--------|
--------------------------|-------------------------------|
--------------------------|-------------------------------|


  begin fade                                                       
  PM         PM PM PM PM PM PM   PM    PM  PM     >                
  E          E  E  E  E  E  E  S S     E   E  E   E  E  E  E   E   
------------------------------------|-----------------------------|
--6-------------5-----3-----3--x-3--|--6p--5--3--/5--L--5--0--/6--|
--7----------7--5--3--------3--x-3--|--7p--5--3--/5--L--5-----/7--|
-------------------------5----------|-----------------------------|
------------------------------------|-----------------------------|
------------------------------------|-----------------------------|


                                               >                 
  E  E  E  E  E  E  E    E       E    E    E   E   E  E  E   E   
----------------------------|----------------------------0------|
--6--6--5-----3-----3-------|-------------------------0--0--/6--|
--7--7--5-----3--5--3--<>5--|--<>5br--L--<>5b---------------/7--|
-----------0-----5----------|------------------5~--L------------|
----------------------------|-----------------------------------|
----------------------------|-----------------------------------|


           PM    PM                                      
  E  E  E  E  E  E  E  E      E   E  E  E   E  E  E  E   
--------------------------|-----------------------------|
--6--6--5--3--3-----3--5--|---6p--5--3--5~--L--5--3--6--|
--7--7--5--3--3--5--3--5--|---7p--5--3--5~--L--5--3--5--|
-----------------5--------|-----------------------------|
--------------------------|-----------------------------|
--------------------------|-----------------------------|


           PM    PM                                   NH      
  E  E  E  E  E  E  E   E     E    E  E    E   Q      E   E   
--------5------------------|---------------------------------|
--6--6--6-----3-----3b--5--|--5br--L--3------------------/6--|
--5--5-----5--3-----3b--5--|--5br--L--3-------------<>3--/7--|
-----------------5---------|-------------<>5~--L-------------|
---------------------------|---------------------------------|
---------------------------|---------------------------------|


                                                      NH      
  E  E  E  S S E  E  E  E     E     E  E  E   E  E    E   E   
---------------------------|---------------------------------|
--6--5--5--x-x-3--5--3--5--|--5-----L--3--5~--L----------/6--|
--7--5--5--x-x-3--5--3--5--|--5pbr--L--3--5~--L--5--<>4------|
---------------------------|---------------------5-----------|
---------------------------|---------------------------------|
---------------------------|---------------------------------|


                               SH                          NH  
  E  E  E  E  E  E  E  E       E    E  E   E   E  E  E     E   
--------------------------|-----------------------------------|
--6--3--5--3--3-----------|-----------------------------------|
--3--3--5-----3--5--3-----|-----------------------------------|
-----------------5--3--5--|-----------------------------<>12--|
-----------------------5--|--<>3br--L--1b---------------------|
--------------------------|----------------3~--L--x--x--------|


        NH       NH    NH       NH  
  E     E  E     E     Q.       E   
-----------------------------------|
-----------------------------------|
-----<>12-----<>12--<>12-----------|
------------------------------<>5--|
-----------------------------------|
-----------------------------------|


       NH      NH   NH       NH  NH   W                 
  E    E  E    E    Q.       S   S    W                 
-----------------------------------|-------------------|
-----------------------------------|-------------------|
-----<>5----------<>5----------<>5-|--L----------------|
-------------<>5-----------<>5-----|-------------------|
-----------------------------------|-------------------|
-----------------------------------|-------------------|


                  fade out   
                  \2         
  Q     Q      E  Q.         
---------------------------||
---------------------------||
--L------------------------||
---------------------------||
---------------------------||
-------(8)s----0--0--------||




Duration Legend
---------------
W - whole
H - half
Q - quarter
E - 8th
S - 16th
T - 32nd
X - 64th
. - note dotted
|-n-|  - n-tuplets


Tablature Legend
----------------
L - tied note
x - dead note
g - grace note
(n) - ghost note
> - accentuded note
NH - natural harmonic
AH - artificial harmonic
TH - tapped harmonic
SH - semi harmonic
PH - pitch harmonic
h - hammer on
p - pull off
b - bend
br - bendRelease
pb - preBend
pbr - preBendRelease
brb - bendReleaseBend
\n/ - tremolo bar dip
\n - tremolo bar dive
-/n - tremolo bar Release up
/n\ - tremolo bar inverted dip
/n - tremolo bar return
-\n - tremolo bar Release down
S - shift slide
s - legato slide
/ -  slide into from below or out of upwards
\ -  slide into from above or out of downwards
~ - vibrato
W - wide vibrato
tr - trill
TP - tremolo picking
T - tapping
S - slap
P - pop
< - fade in
^ - brush up
v - brush down
comments
print report bad tab
I want to post or [tab]
guest
You may want to rate the tab now too:
select rating
Please do not post tabs as comments. Select "correction" instead!